>
 >
Black No 1

Black No 1 Guitar Tabs

Type O Negative - Black No 1 chords, tabs, tablatures, lyrics

Guitar lessons | Add/correct | Request | Top 50 tabs Artists:  A B C D E F G H I J K L M N O P Q R S T U V W X Y Z 0-9

Black No 1 Guitar Tabs – Type O Negative

CD, Sheet music, Poster

Do you like Black No 1? Share with your friends now
Bass TabsTabs
Tune down to B

. = palm mute   b = bend   r = release   / , \ = slide

Intro riff: (bass transcr. for guitar)
                        play 3 times
|-----------------------------------|---------------------------------|
|*---------------------------------*|---------------------------------|
|-----------------------------------|---------------------------------|
|-----------------------------------|-------------------5-------------|
|*-0-0-0-0-3-3-3-3-7-7-7-5---5-3-5-*|-0-0-0-0-3-3-3-5-7---6-5---------|
|-----------------------------------|---------------------------------|

Chorus riff:
                        play 3 times
|-----------------------------------|---------------------------------|
|*---------------------------------*|---------------------------------|
|--9---9---9---9---9---9---9---9----|-9---9---9---9-----5-------------|
|----7---7--10--10---7--12--12--12--|---7---7--10---5-7---6-5---------|
|*---------------------------------*|---------------------------------|
|-----------------------------------|---------------------------------|

Verse riff:
                        play 3 times
|-----------------------------------|---------------------------------|
|*---------------------------------*|---------------------------------|
|-----------------------------------|---------------------------------|
|--2-2-2-2-5-5-5-5-9-9-9-7---7-5-7--|-2-2-2-2-5-5-5-----5-------------|
|*-0-0-0-0-3-3-3-3-7-7-7-5---5-3-5-*|-0-0-0-0-3-3-3-5-7---6-5---------|
|-----------------------------------|---------------------------------|
   . . . . . . . . . . .              . . . . . . .
 
Pre-chorus:
                            play 3 times
|---------------------------------------|-------------------------------|
|*-------------------------------------*|-------------------------------|
|--4-4-x-x-x-7-7-x-x-x-11-11-x-x-x-9-9--|-4-4-x-x-x-7-7-----------------|
|--4-4-x-x-x-7-7-x-x-x-11-11-x-x-x-9-9--|-4-4-x-x-x-7-7-----7-----------|
|*-2-2-x-x-x-5-5-x-x-x--9--9-x-x-x-7-7-*|-2-2-x-x-x-5-5-7-9---8-7-------|
|---------------------------------------|-------------------------------|

'Loving you...' riff:
                        play 3 times
|-----------------------------------|-------------------------------|
|*---------------------------------*|-------------------------------|
|-----------------------------------|-------------------------------|
|--7-7-7-7-9-9-9-9-4-4-4-4-4-2-2-2--|-7-------9-------4-------------|
|*-5-5-5-5-7-7-7-7-2-2-2-2-2-0-0-0-*|-5-------7-------2-------------|
|-----------------------------------|-------------------------------|
   . . . . . . . . . . . . .

'Loving you...' riff 2:
                       play twice
|--------------------------------|----------------------------|
|*-------------------------------|----------------------------|
|--------------------------------|----------------------------|
|--7-------9-------4-------------|-7-------9-----\------------|
|*-5-------7-------2-------------|-5-------7-----\------------|
|--------------------------------|----------------------------|

Rhythm riff:
|-------------------------------------------------------------|
|-------------------------------------------------------------|
|-------------------------------------------------------------|
|-----------------------2-------------------------------2-----|
|-------------5-5-5-2-5---5p2p0---------------5-5-5-2-5---5b6-|
|-0-0-0-0-3-0-------------------0-0-0-0-0-3-0-----------------|
    . . .                         . . . 

Solo:
|------------------------------------------7b8r7----------------------|
|--------------------------------------8---------10-8-10-----8--------|
|---------4b5r4--------------------7-9---9---------------7-9---9-7\---|
|-----5---------7-5-7-----5--------------------------------------7\---|
|-5-7---7-------------5-7---7-5\--------------------------------------|
|-----------------------------5\--------------------------------------|

Ending riff:
|--------------------------------------|
|--------------------------------------|
|--------------------------------------|
|-2---5---9---7---5/7-2---5---7--------|
|-0---3---7---5---3/5-0---3-0-5-5b6r5--|
|--------------------------------------|
                            .

Ending riff 2:
|---------------------------------|
|---------------------------------|
|---------------------------------|
|-2---5-------7-\-2---5-------7-\-|
|-0---3-------5-\-0---3-------5-\-|
|---------------------------------|


Playing order:
   3x Intro riff (guitar joins bass at the very ending of 3rd time)
      Chorus riff
   2x Verse riff
      Pre-chorus
      Chorus
   2x Verse riff
      Pre-chorus
      Chorus
      (Keyboard part)
      'Loving you...' riff
      'Loving you...' riff 2
      (Keyboard part)
   6x Rhythm riff
      (Keyboard part)
   2x 'Loving you...' riff
      'Loving you...' riff 2
      Intro riff
   2x Chorus
      Solo with Verse riff as background
   4x Ending riff
      (drums only)
      Ending riff 2 until fade





Comments


Popular Type O Negative tabs & chords
Black No 1 Bass Tabs
Black No 2 Bass Tabs
Unsuccessfully Coping With The Natural Beauty Of Infidelity Bass Tabs
World Coming Down Bass Tabs
I Don't Wanna Be Me Chords
Black Sabbath Tabs
Burnt Flowers Fallen Tabs
Everyone I Love Is Dead Tabs
My Girlfriend's Girlfriend 2 Tabs
We Hate Everyone Tabs


Song lyrics



↑ Back to top | Tablatures and chords are parodies/interpretations of the original songs. You may use it for private study, scholarship, research or language learning purposes only
© 2014 AZChords.com Contact us | Privacy policy | DMCA | Add/correct tabs | Request tabs | Top 50 tabs