» » »

Black No Bass tabs (ver.1)

Artists:  A B C D E F G H I J K L M N O P Q R S T U V W X Y Z # 

Black No Bass tabs (ver.1)

Type O Negative
Rating:
0/5 (0 votes)

Hard to play? Try these video lessons and learn fast.
                
Type O Negative Black No.1



I found a bass tab for this song on the OLBA but it was for the guitar!!

So here's the proper version, I watched that video 1 too many times now

Main Rift
G|-----------------------------------------|
D|------------------2-2-2-2-0--2-0-2-0-2---| /
A|0-0-0-0--3-3-3-3-------------------------| / 3
E|-----------------------------------------|

Bit On The End
G|-----------------------------------------|
D|----------------------6------------------| /
A|0-0-0-0-3--3-3-3--5-7---6-5--------------| / 1
E|-----------------------------------------|



End....
            
Hard to play? Try these video lessons and learn fast. | Correct




comments powered by Disqus
↑ Back to top | Tablatures and chords are parodies/interpretations of the original songs. You may use it for private study, scholarship, research or language learning purposes only