>
 >
Beelzeboss 2

Beelzeboss 2 Guitar Tabs

Tenacious D - Beelzeboss 2 chords, tabs, tablatures, lyrics

Guitar lessons | Add/correct | Request | Top 50 tabs Artists:  A B C D E F G H I J K L M N O P Q R S T U V W X Y Z 0-9

Beelzeboss 2 Guitar Tabs – Tenacious D

CD, Sheet music, Poster

Do you like Beelzeboss 2? Share with your friends now
Bass TabsBass Tabs v2ChordsChords v2TabsTabs v2Tabs v3Tabs v4Tabs v5Ukulele
==================================
=                                =
=  Tenacious D - Beelzeboss      =
=                                =
=  Copyright by Tobias Kündig    =
=                                =
==================================

Intro
=========

 E ||--------------------||
 B ||--------------------||
 G ||--------------------||
 D ||--------------------||
 A ||-2-3-5-7-9-10-12-13-||
 E ||--------------------||



Devil's Part 1
==================

 E ||---------------|---------------|-------------------------------||
 B ||---------------|---------------|-------------------------------||
 G ||-3-2-x-x-x-x-x-|-3-2-x-x-x-x-x-|-3-2-x-x-2-3-x-x-3-2-x-x-x-x-x-||
 D ||-3-2-x-x-x-x-x-|-3-2-x-x-x-x-x-|-3-2-x-x-2-3-x-x-3-2-x-x-x-x-x-||
 A ||-1-0-x-x-x-x-x-|-1-0-x-x-x-x-x-|-1-0-x-x-0-1-x-x-1-0-x-x-x-x-x-||
 E ||---------------|---------------|-------------------------------||     2x

 E ||---------------|---------------|-----------------------------||
 B ||---------------|---------------|-----------------------------||
 G ||-3-2-x-x-x-x-x-|-3-2-x-x-x-x-x-|-3-2-x-x-2-3-x-x-3-2---8-8-8-||
 D ||-3-2-x-x-x-x-x-|-3-2-x-x-x-x-x-|-3-2-x-x-2-3-x-x-3-2-4-8-8-8-||
 A ||-1-0-x-x-x-x-x-|-1-0-x-x-x-x-x-|-1-0-x-x-0-1-x-x-1-0-4-6-6-6-||
 E ||---------------|---------------|---------------------2-------||



The D - Clean Part 1
========================
                                      <--- Picked --->

     B  D  F# G    G  D  A            G  D  G  Gsus4 G
     
 E ||2--8--2--3--|-3--5--5--|-------|-3--5--5--5-----5||
 B ||4--7--2--3--|-3--7--5--|-------|-3--7--5--5-----5||
 G ||4--7--3--4--|-4--7--4--|-------|-4--7--6--7-----6||
 D ||4--7--4--5--|-5--7--7--|-------|-5--7--7--7-----7||
 A ||2--5--4--5--|-5--5--7--|-------|-5--5--7--7-----7||
 E ||------2--3--|-3-----5--|-0-2-3-|-3-----5--5-----5||



Devil's Part 2
==================

  Palm Mute             . . . . . . . . .     . . .     . . .

 E ||-------|-------|---------------------|---------|---------||
 B ||-------|-------|---------------------|---------|---------||
 G ||-------|-------|---------------------|-7-7-7-7-|---------||
 D ||-9 /-4-|-9-/-4-|-9-9-9-9-9-9-9-9-9-9-|-7-7-7-7-|-4-4-4-4-||
 A ||-9-/-4-|-9-/-4-|-9-9-9-9-9-9-9-9-9-9-|-5-5-5-5-|-4-4-4-4-||
 E ||-7-/-2-|-7-/-2-|-7-7-7-7-7-7-7-7-7-7-|---------|-2-2-2-2-||

        . . . . . . . . .     . . .     . . .

 E ||---------------------|---------|---------||
 B ||---------------------|---------|---------||
 G ||-4-4-4-4-4-4-4-4-4-4-|-7-7-7-7-|---------||
 D ||-4-4-4-4-4-4-4-4-4-4-|-7-7-7-7-|-4-4-4-4-||
 A ||-2-2-2-2-2-2-2-2-2-2-|-5-5-5-5-|-4-4-4-4-||
 E ||---------------------|---------|-2-2-2-2-||

        . . . . . . . . .     . . .     . . .     . . . . . . . . .

 E ||---------------------|---------|---------|-------------------------||
 B ||---------------------|---------|---------|-------------------------||
 G ||-4-4-4-4-4-4-4-4-4-4-|-7-7-7-7-|---------|-------------------------||
 D ||-4-4-4-4-4-4-4-4-4-4-|-7-7-7-7-|-4-4-4-4-|-7-7-7-7-7-7-7-7-7-7---2-||
 A ||-2-2-2-2-2-2-2-2-2-2-|-5-5-5-5-|-4-4-4-4-|-7-7-7-7-7-7-7-7-7-7---2-||
 E ||---------------------|---------|-2-2-2-2-|-5-5-5-5-5-5-5-5-5-5---0-||



The D & Devil - Clean Part 2
================================

      E           Am E       E     Am F  C  G  A     Asus4

 E ||-0--0--0--0--0--0--0--|-0--0--0--1--3--3--0-|-0-0-0-||
 B ||-0--0--0--0--1--0--0--|-0--0--1--1--4--3--2-|-2-3-2-||
 G ||-1--1--1--1--2--1--1--|-1--1--2--2--4--4--2-|-2-2-2-||
 D ||-2--2--2--2--2--2--2--|-2--2--2--3--4--5--2-|-2-2-2-||
 A ||-2--2--2--2--0--2--2--|-2--2--0--3--3--5--0-|-0-0-0-||
 E ||-0--0--0--0-----0--0--|-0--0-----1-----3----|-------||


     And what if I win?    
                Then you can...  ... bitch!

      Am         G                   C

 E ||-0--0-0-0-|-3--3-3-3-|-3-3-3-3--0-||
 B ||-1--1-1-1-|-3--3-3-3-|-3-3-3-3--1-||
 G ||-2--2-2-2-|-0--0-0-0-|-0-0-0-0--0-||
 D ||-2--2-2-2-|-0--0-0-0-|-0-0-0-0--2-||
 A ||-0--0-0-0-|-2--2-2-2-|-2-2-2-2--3-||
 E ||----------|-3--3-3-3-|-3-3-3-3----||



The Rockoff - Devil's Part 1
================================
                                              | only first 3 times |
 E ||-----------------------------------------|-------------------||
 B ||-----------------------------------------|-------------------||
 G ||-4-4-x-x-x-4-4-x-x-x-4-4-x-x-x-4-4-x-x-x-|-5-4-7-6-9-8-12-11-||
 D ||-4-4-x-x-x-4-4-x-x-x-4-4-x-x-x-4-4-x-x-x-|-5-4-7-6-9-8-12-11-||
 A ||-2-2-x-x-x-2-4-x-x-x-2-4-x-x-x-2-4-x-x-x-|-3-2-5-4-7-6-10-9--||
 E ||-----------------------------------------|-------------------||   4x

The Riff:

 E ||-------------------------------------------------------||
 B ||----------------------12----------------------------12-||
 G ||-11-11-11-11-14-11-14----14-11-10-p11-10---------11----||
 D ||-----------------------------------------14-12---------||
 A ||-----------------------------------------------14------||
 E ||-------------------------------------------------------||


I'm the devil I can do what i want...

 E ||-------------------|-----------------------------------------||
 B ||-------------------|-----------------------------------------||
 G ||-4*----7*----------|-4-4-x-x-x-4-4-x-x-x-4-4-x-x-x-4-4-x-x-x-||
 D ||-4*----7*----4*----|-4-4-x-x-x-4-4-x-x-x-4-4-x-x-x-4-4-x-x-x-||
 A ||-2*----5*----4*----|-2-2-x-x-x-2-2-x-x-x-2-2-x-x-x-2-2-x-x-x-||
 E ||-------------2*----|-----------------------------------------||      2x
     
* 1st time let ring, 2nd time strum



Noooooooooo!

 E ||---||
 B ||---||
 G ||-7-||
 D ||-7-||
 A ||-5-||
 E ||---||




The D - Clean Part 3
========================

     G                A#                D/A               G

 E ||-----------------|-----------------|-----------------|-----------||
 B ||-----------------|-----------------|-----------------|-----------||
 G ||-----0---3-0---0-|---------7-------|---7-----7-------|-----0---3-||
 D ||---0---0-----0---|-----8-----8---8-|-----7-----7---7-|---0---0---||
 A ||-----------------|---8---8-----8---|-5-----5-----5---|-----------||
 E ||-3---------------|-6---------------|-----------------|-3---------||     2x  

 E ||-----------------|-----------------|-----------------|-----------||
 B ||-----------------|---------8-------|---------6-------|---------7-||
 G ||-----0---3-0---0-|-----8-----8---8-|-----------7---7-|-----7-----||
 D ||---0---0-----0---|---8---8-----8---|-----8-------8---|---7---7---||
 A ||-----------------|-6---------------|---8---8---------|-5---------||
 E ||-3---------------|-----------------|-6---------------|-----------||




C'mon Kage now it's time to ...

      G                       D#     A#   E#

 E ||-----------------------|-6-6-6--6-6--8--8--||
 B ||-----------------------|-8-8-8--6-6--10-10-||
 G ||-----------------------|-8-8-8--7-7--10-10-||
 D ||-5-5-3-5-5-3-5-5-3-5-5-|-8-8-8--8-8--10-10-||
 A ||-5-5-3-5-5-3-5-5-3-5-5-|-6-6-6--8-8--8--8--||
 E ||-3-3-3-3-3-3-3-3-3-3-3-|--------6-6--------||     4x 




The D - Rockin'
======================

P.M.    . .   . .   .     . .   . .   .     . .   . .   .     . .   . .   .

 E ||-----------------|-----------------|-----------------|-----------------||
 B ||-----------------|-----------------|-----------------|-----------------||
 G ||-----------------|-7-7-7-7-7-7-7-7-|-----------------|-7-7-7-7-7-7-7-7-||
 D ||-6-6-6-6-6-6-6-6-|-7-7-7-7-7-7-7-7-|-8-8-8-8-8-8-8-8-|-7-7-7-7-7-7-7-7-||
 A ||-6-6-6-6-6-6-6-6-|-5-5-5-5-5-5-5-5-|-8-8-8-8-8-8-8-8-|-5-5-5-5-5-5-5-5-||
 E ||-3-3-3-3-3-3-3-3-|-----------------|-6-6-6-6-6-6-6-6-|-----------------||     3x


                                          You are the devil, we are the D!

P.M.    . .   . .   .     . .   . .   .     . .   . .   .     

 E ||-----------------|-----------------|-----------------|-8--8--8--8--8--8--||
 B ||-----------------|-----------------|-----------------|-10-10-10-11-10-10-||
 G ||-----------------|-7-7-7-7-7-7-7-7-|-----------------|-10-10-10-10-10-10-||
 D ||-6-6-6-6-6-6-6-6-|-7-7-7-7-7-7-7-7-|-8-8-8-8-8-8-8-8-|-10-10-10-10-10-10-||
 A ||-6-6-6-6-6-6-6-6-|-5-5-5-5-5-5-5-5-|-8-8-8-8-8-8-8-8-|-8--8--8--8--8--8--||
 E ||-3-3-3-3-3-3-3-3-|-----------------|-6-6-6-6-6-6-6-6-|-------------------||



We are the D, We are the D, We are the D, We are the D, We are the D...

 E ||-------------------||
 B ||-------------------||
 G ||-----7-7-----10-10-||
 D ||-5-5-7-7-8-8-10-10-||
 A ||-5-5-5-5-8-8-8--8--||
 E ||-3-3-----6-6-------||    2x


 E ||-----------------|-----------------|-----------------|-----------------||
 B ||-----------------|-----------------|-----------------|-----------------||
 G ||-----------------|-7-7-7-7-7-7-7-7-|-8-8-8-8-8-8-8-8-|-----------------||
 D ||-5-5-5-5-5-5-5-5-|-7-7-7-7-7-7-7-7-|-8-8-8-8-8-8-8-8-|-8-8-8-8-8-8-8-8-||
 A ||-5-5-5-5-5-5-5-5-|-5-5-5-5-5-5-5-5-|-6-6-6-6-6-6-6-6-|-8-8-8-8-8-8-8-8-||
 E ||-3-3-3-3-3-3-3-3-|-----------------|-----------------|-6-6-6-6-6-6-6-6-||     2x




... WE ARE THE D!

 E ||---------------------------------------------||
 B ||---------------------------------------------||
 G ||---------------------------------------------||
 D ||-5--5-5-5--5--5-5-5--5--5-5-5-5-5-5-5-5-5--5-||
 A ||-5--5-5-5--5--5-5-5--5--5-5-5-5-5-5-5-5-5--5-||
 E ||-3--3-3-3--3--3-3-3--3--3-3-3-3-3-3-3-3-3--3-||




The last part
=================

 E ||-------------------------------------------||
 B ||-------------------------------------------||
 G ||-------------------------------------------||
 D ||-5-3-5--x-x-x--3-5--x-x-x--3-5--x-x-x--3-5-||
 A ||-5-3-5--x-x-x--3-5--x-x-x--3-5--x-x-x--3-5-||
 E ||-3-1-3--x-x-x--1-3--x-x-x--1-3--x-x-x--1-3-||

 E ||------------------|------------------||
 B ||------------------|------------------||
 G ||------------------|------------------||
 D ||-8-8-7-8--8-8-7-8-|-8-8-7-8--8-8-7-8-||
 A ||-8-8-7-8--8-8-7-8-|-8-8-7-8--8-8-7-8-||
 E ||-6-6-5-6--6-6-5-6-|-6-6-5-6--6-6-5-6-||


Ah, fuck... My fuckin' horn...

 E ||----------------------------------------------------------------||
 B ||----------------------------------------------------------------||
 G ||----------------------------------------------------------------||
 D ||-12--12--12--12--12--12--12--12--12--12--12--12--12--12--12--12-||
 A ||-12--12--12--12--12--12--12--12--12--12--12--12--12--12--12--12-||
 E ||-10--10--10--10--10--10--10--10--10--10--10--10--10--10--10--10-||

 E ||----------------------------------------------------------------||
 B ||----------------------------------------------------------------||
 G ||----------------------------------------------------------------||
 D ||--12-11---12-11---12-11---12-11---12-11---12-11---12-11---12-11-||
 A ||--12-11---12-11---12-11---12-11---12-11---12-11---12-11---12-11-||
 E ||--10-9----10-9----10-9----10-9----10-9----10-9----10-9----10-9--||


Nooooooo!


 E ||-------------------||
 B ||-------------------||
 G ||-5-4-7-6-9-8-12-11-||
 D ||-5-4-7-6-9-8-12-11-||
 A ||-3-2-5-4-7-6-10-9--||
 E ||-------------------||     2x


Strumming...

            | ------------- 2x ------------- |
 E ||-------|--------------------------------||
 B ||-------|--------------------------------||
 G ||-12-11-|--12-11---12-11---12-11---12-11-||
 D ||-12-11-|--12-11---12-11---12-11---12-11-||
 A ||-10-9--|--10-9----10-9----10-9----10-9--||
 E ||-------|--------------------------------||



End on

 E ||-5------5-5---5--||
 B ||-6------6-6---6--||
 G ||-7------7-7---7--||
 D ||-7------7-7---7--||
 A ||-5------5-5---5--||
 E ||-----------------||





Comments


Popular Tenacious D tabs & chords
Tribute 2 Bass Tabs
Marajuanaville 1 Chords
Rize Of The Fenix Chords
Baby Tabs
Cream Dream Tabs
Dio 1 Tabs
Karate Tabs
Master Exploder 2 Tabs
Tribute Tabs
To Be The Best Ukulele


Song lyrics



↑ Back to top | Tablatures and chords are parodies/interpretations of the original songs. You may use it for private study, scholarship, research or language learning purposes only
© 2014 AZChords.com Contact us | Privacy policy | DMCA | Add/correct tabs | Request tabs | Top 50 tabs