>
 >
Wonderboy

Wonderboy Chords

Tenacious D - Wonderboy chords, tabs, tablatures, lyrics

Guitar lessons | Add/correct | Request | Top 50 tabs Artists:  A B C D E F G H I J K L M N O P Q R S T U V W X Y Z 0-9

Wonderboy Chords – Tenacious D

CD, Sheet music, Poster

Do you like Wonderboy? Share with your friends now
Bass TabsBass Tabs v2Bass Tabs v3ChordsDrum TabsTabsTabs v2Tabs v3Tabs v4Tabs v5Ukulele
Artist    Tenacious D
Album     Tenacious D
Track     Wonderboy
Tuning    D# G# C# F# A# D# (one step down from standard, but you can play in
standard if you want)

This tab is copied from a magazine and is 100% perfect. The song is fun to play,
and is pretty easy except for THAT solo. I'm gonna type up the solo from the
magazine as well, but it's too long and I can't be arsed, so maybe another time, eh?

Guitar Chords
|----------------------------------|
|Tuning         | D# G# C# F# A# D#|
| D             |  x  x  0  2  3  2|
| Bb/D          |  x  x  0  3  3  1|
| D5            |  x  x  0  2  3  x|
| D/C#          |  x  4  x  2  3  x|
| Bm            |  x  2  4  4  3  x|
| Asus4         |  x  0  2  2  3  x|
| G             |  3  5  5  4  3  3|
| A             |  x  0  2  2  2  0|
| D/F#          |  2  5  4  2  3  2|
| Em            |  0  2  2  0  0  0|
| A7            |  x  0  2  0  2  x|
| Dadd11/A      |  x  0  4  0  3  x|
| A7(v2)        |  x  0  5  0  5  x|
| Dadd11/A(v2)  |  x  0  7  0  7  x|
| G/A           |  x  0  9  0  8  x|
| A7(v3)        |  x  0 11  0 10  x|
| C             |  x  3  5  5  5  x|
|----------------------------------|

The intro is played over alternating D and Bb/D chords. This is the tab for the intro:

     D                                Bb/D
e| -----2-----------3-2----------- | -----1-0---------1-0----------- |
B|:---------3-----------3-------3- | ---------3-----------3-------3-:|
G| -------------2-----------2----- | -3-----------3-----------3----- |
D| -0----------------------------- | ------------------------------- |
A|:------------------------------- | -------------------------------:|
E| ------------------------------- | ------------------------------- |

    Bb/D
e| ------------------------------- | ------------------------------- |
B| -10----------------------10/-11 | -11--------------13------11/-10 |
G| -11----------------------11/-12 | -12--------------13------12/-10 |
D| ------------------------------- | ------------------------------- |
A| ------------------------------- | ------------------------------- |
E| ------------------------------- | ------------------------------- |

    D                                 Bb/D
e| ------------------------------- | ------------------------------- |
B| -10----------------------10/-11 | -11--------------12------11---- |
G| -11----------------------11/-12 | -12--------------15------12---- |
D| ------------------------------- | ------------------------------- |
A| ------------------------------- | ------------------------------- |
E| ------------------------------- | ------------------------------- |


ONCE YOU'VE PLAYED THE INTRO, THEN JUMP STRAIGHT INTO VERSE 1

INTRO
   D Bb/D x4

VERSE 1
   D                          Bb/D
   High above the mucky-muck, castle made of stew
   D                         Bb/D
       There sits Wonderboy, sitting oh so proudly
   D5                 D/C#                           Bm          Asus4  G  A
       not much to say    when you're high above the mucky-muck, yeah,    yeah

CHORUS
   D        Bb/D  D             Bb/D
       Wonderboy,    what is the secret of your power?
   D5        D/C#           Bm          Asus4         G     A    D
       Wonderboy, won't you take me far away from the mucky-muck man?

BRIDGE
   D Bb/D x4

VERSE 2
   D                                                 Bb/D
   Now it's time for me to tell you about Young Nastyman
                               D                                  Bb/D
   Arch rival and nemesis of Wonderboy, with powers comparable to Wonderboy
        D5                                                 D/C#
   What powers do you ask? I dunno, how about the power of flight?
                            Bm                           Asus4
   That do anything for ya?    That's levitation, Holmes
                                   G                       D/F#
   How 'bout the power to kill a yak from 200 yards away...
        Em            A7        Aadd11/A   A7(v2)   Dadd11/A(v2)
   With mind bullets!    That's teleki   -   nesis, Kyle
   G/A                    A7(v3)
       How 'bout the power,    to move you?

VERSE 3 (CHORDS AS VERSE 1)
   History of Wonderboy, and Young NastyMan
   Riggah-go-goo, riggah-goo-goo
   A secret to be told, a gold chest to be bold
   And blasting forth in three-part harmony

CHORUS (AS ABOVE)

BRIDGE

VERSES 4
         D
   Well, Wonderboy and Young Nastyman joined forces;
   Bb/D                                            D
   they formed a band the likes of which had never been seen,
                               Bb/D
   And they called themselves Tenacious D. That's right,
   D5              D/C#       Bm           Asus4  G   A        C  G  D
   Me! And KG! ("That's me"),    we're now Tena   -   cious D!

   Come fly with me, fly!

(These chords can be pretty hard at first if you can't remember them.
Print out the guitar chord chart seperately.)

SOLO (CHORDS AS VERSE 1)

CHORUS (AS ABOVE)

OUTRO
   D   Bb/D                D                    Bb/D
   Oh! Take my hand! Young Nasty Man, and we'll fly!
                  D                       Bb/D
   Bring out your broadsword, there's the hydra
             D                    Bb/D
   Slice his throat, and grab his scrote
                D                        Bb/D
   You take the high road, I'll take the low
   D                         Bb/D                   D
   There, the crevasse, fill it, with some mighty juice!

That's all there is. The solo is too hard for me to write up at the moment.
I'm tired. I'll give it a shot another time.





Comments


Popular Tenacious D tabs & chords
Wonderboy 2 Bass Tabs
Andrea Tabs
Dude I Totally Miss You Tabs
Its A Long Way To The Top Tabs
Metal 2 Tabs
Rize Of The Fenix 2 Tabs
Kyle Took A Bullet For Me Ukulele
Master Exploder Ukulele
The Road Ukulele
To Be The Best Ukulele


Song lyrics



↑ Back to top | Tablatures and chords are parodies/interpretations of the original songs. You may use it for private study, scholarship, research or language learning purposes only
© 2014 AZChords.com Contact us | Privacy policy | DMCA | Add/correct tabs | Request tabs | Top 50 tabs