>
 >
Beelzeboss

Beelzeboss Bass Tabs

Tenacious D - Beelzeboss chords, tabs, tablatures, lyrics

Guitar lessons | Add/correct | Request | Top 50 tabs Artists:  A B C D E F G H I J K L M N O P Q R S T U V W X Y Z 0-9

Beelzeboss Bass Tabs – Tenacious D

CD, Sheet music, Poster

Do you like Beelzeboss? Share with your friends now
Bass TabsBass Tabs v2ChordsChords v2TabsTabs v2Tabs v3Tabs v4Tabs v5Ukulele
INTRO
G|------------------------------------------------------------------|
D|------------------------------------------------------------------|
A|--2--2-2-2-2-2-2--3--3-3-3-3-3-3--5--5-5-5-5-5-5--7--7-7-7-7-7-7--|
E|------------------------------------------------------------------|

G|-----------------------------------------------------------------------|
D|-----------------------------------------------------------------------|
A|--9---9--9--9--9--9--9---10--10-10-10-10-10-10--12--12-12-12-12-12-12--|
E|-----------------------------------------------------------------------|


G|------------------------------------------------|-------------|
D|------------------------------------------------|-------------|
A|--13-13--13-13-13-13--13-13-13-13--13-13-13-13--|--13----(x24)|
E|------------------------------------------------|-------------|

"I Am Complete"
G|----------------------------|---------------------------------------| x2
D|----------------------------|---------------------------------------|
A|----------------------------|---------------------------------------|
E|--6-5--x-x-x--x-x------(x2)-|--6-5--x-x--5-6--x-x--6-5--x-x-x--x-x--|

G|----------------------------|-------------------------------|
D|----------------------------|-------------------------------|
A|----------------------------|----------------------------6--|
E|--6-5--x-x-x--x-x------(x2)-|--6-5--x-x--5-6--x-x--6-5-3----|

"Wait... Wait.."
G---------------------------------|------------------------|--------------|
D|--------------------------------|------------------------|--------------|
A|--2~----2-5~---5----------------|----------5~----5-------|--------------|
E|------------------2~----2-3~----|--3~----3---------5~----|--5-5~---5~---|

G|------------------------|
D|------------------------|
A|-------5---------5------|
E|--3~--------5------5~---|

"Fuck... Fuck..."
G|------------------|--------------------------------------------------|
D|------------------|--------------------------------------------------|
A|--14/---14/-------|--2--2-2-2-2-2-2-2-2-2--5--5-5-5------------------|
E|------------------|----------------------------------2--2-2-2---(x3)-|

"If We Win..."
G|------------------------------------------------------------------------|
D|-------------------------------------------------------0----------------|
A|------------------0-(x8)-------------------------0-3-----0~-----0-0-0~--|
E|--0-(x16)------------------------0-(x16)-------------3------------------|

"And What If I Win"
G|----------|----------|
D|----------|----------|
A|--0-0-0~--|------0~--|
E|----------|----------|

"You Can Take Kage..."
G|---------------------------------------------|
D|---------------------------------------------|
A|------------------------------------------3--|
E|--3~----3-3~----3-3-3~----3~----3-3-3-3-3----|

Devil Starts
G|--------------------|----------------------------| x3
D|--------------------|----------------------------|
A|--2--x-x-x-x--(x4)--|--3--2--5--4--7--6--10--9---|
E|--------------------|----------------------------|

[Rest For Riff]
G|-----|
D|-----|
A|-----|
E|-----|

"Im The Devil..."
G|--------------------|--------------------|
D|--------------------|--------------------|
A|--2~----5~----------|--2--x-x-x-x---(x4)-|
E|--------------2~----|--------------------|

G|-----------------------------------------------------|
D|-----------------------------------------------------|
A|--2-2-2-2-2-2-2-2--5-5-5-5-5-5-5-5-------------------|
E|------------------------------------2-2-2-2-2-2-2-2--|

G|--------------------|------|
D|--------------------|------|
A|--2--x-x-x-x---(x4)-|--5~--|
E|--------------------|------|

Rest For "Theres Just No Way"
G|-----|
D|-----|
A|-----|
E|-----|

"C'mon Kage Now It's Time To Blow Doors Down"
G|-----------------------------------------------------------------| x2
D|-----------------------------------------------------------------|
A|-------------------------------6--6--6-6-6---------8---8--8--8---|
E|--3--3--3-3-3-3-3-3-3-3-3-3-3---------------6-6-6----------------|

G|-------------------------------------------------------------|
D|-------------------------------------------------------------|
A|-------------------------------6--6--6-6-6-------------------|
E|--3--3--3-3-3-3-3-3-3-3-3-3-3---------------6-6-6--1--1-1-1--|

G|-----------------------------------------------------------------|
D|-----------------------------------------------------------------|
A|-------------------------------6--6--6-6-6---------10--10-10-10--|
E|--3--3--3-3-3-3-3-3-3-3-3-3-3---------------6-6-6----------------|

"Hey Anti Christer..."
G|----------------------------------------------------------------------| x2
D|----------------------------------------------------------------------|
A|-------------------5-5-5-5-5-5-5-5-------------------5-5-5-5-5-5-5-5--|
E|--3-3-3-3-3-3-3-3-------------------6-6-6-6-6-6-6-6-------------------|

G|----------------------------------------------------------------------|
D|----------------------------------------------------------------------|
A|-------------------5-5-5-5-5-5-5-5------------------------------------|
E|--3-3-3-3-3-3-3-3-------------------6-6-6-6-6-6-6-6--1-1-1-1-1-1-1-1--|

G|----------------------------------------------| x2
D|----------------------------------------------|
A|-------------5----5--5-------------5----5--5--|
E|--3----3--3-------------6----6--6-------------|

G|-------------------------------------------------|
D|-------------------------------------------------|
A|-------------5----5--5-------------8-----8---8---|
E|--3----3--3-------------6----6--6----------------|

We Are The D
G|--------------------------| x2
D|--------------------------|
A|--------5--5--1--1--------|
E|--3--3--------------1--1--|

G|-------------------------------------------------------------------| x2
D|-------------------------------------------------------------------|
A|------------------5-5-5-5-5-5-5-5-1-1-1-1-1-1-1-1------------------|
E|--3-3-3-3-3-3-3-3---------------------------------1-1-1-1-1-1-1-1--|

G|------------------------------------------------|
D|------------------------------------------------|
A|------------------------------------------------|
E|--3---3-3-3-3---3-3-3-3---3-3-3-3-3-3-3-3-3--3--|

"Taste My Lightning"
G|-------------------------------------------------------------------------|
D|-------------------------------------------------------------------------|
A|-------------------------------------1-0-1-x-1-1-0-1-x-1-1-0-1-x-1-1-0-1-|
E|-3-1-3-x-3-3-1-3-x-3-3-1-3-x-3-3-1-3-------------------------------------|

"My Fucking Horn"
G|-------------------------------------------------------------------|
D|-------------------------------------------------------------------|
A|-5-5-5-5-5-5-5-5-5-5-5-5-5-5-5-5--5-4-5-4-5-4-5-4-5-4-5-4-5-4-5-4--|
E|-------------------------------------------------------------------|

"Nooooooooo"
G|--------------------------------------------------------------------------| x2
D|--------------------------------------------------------------------------|
A|--3-(x8)---2-(x8)---5-(x8)---4-(x8)---7-(x8)---6-(x8)--10-(x8)---9--(x8)--|
E|--------------------------------------------------------------------------|

"Ill Get You Tenacious DDDDDDDDD"
G|---------------------|---------------------------------------------------|
D|---------------------|---------------------------------------------------|
A|--10-(x8)---9--(x8)--|--10-9--10-9--10-9--10-9--10-9--10-9--10-9--10-9---|
E|---------------------|---------------------------------------------------|





Comments


Popular Tenacious D tabs & chords
Baby Chords
Roadie Chords
Destiny Tabs
Explosivo 1 Tabs
Jesus Ranch 1 Tabs
Karate Tabs
Keilbasa 1 Tabs
Kielbasa 4 Tabs
Tribute 1 Tabs
Sasquatch Ukulele


Song lyrics



↑ Back to top | Tablatures and chords are parodies/interpretations of the original songs. You may use it for private study, scholarship, research or language learning purposes only
© 2014 AZChords.com Contact us | Privacy policy | DMCA | Add/correct tabs | Request tabs | Top 50 tabs