>
 >
Kickapoo

Kickapoo Guitar Tabs

Tenacious D - Kickapoo chords, tabs, tablatures, lyrics

Guitar lessons | Add/correct | Request | Top 50 tabs Artists:  A B C D E F G H I J K L M N O P Q R S T U V W X Y Z 0-9

Kickapoo Guitar Tabs – Tenacious D

CD, Sheet music, Poster

Do you like Kickapoo? Share with your friends now
Bass TabsChordsChords v2Chords v3TabsTabs v2Tabs v3Tabs v4Tabs v5Ukulele
-------------------------------------------------------------------------------
			     Kickapoo  Tenacious D
-------------------------------------------------------------------------------

Thanks to Alex Pieros for the intro

Tuning: Standard


e|-----1--1--1--1--3--1--1--0--1------------------|   -----------           
B|-----3--3--3--3--3--3--3--3--3------------------|              |
G|-----2--2--2--2--2--2--2--2--2------------------|              |
D|--0---------------------------------------------|    x2        |
A|------------------------------------------------|              |
E|------------------------------------------------|              |
    Dm                                                           |
							         |
e|------------------------------------------------|		 |
B|-----1--1--1--1--3--1--1--0--1------------------|		 |
G|-----2--2--2--2--2--2--2--2--2------------------|		 |
D|-----2--2--2--2--2--2--2--2--2------------------|    x2        |
A|--0---------------------------------------------|              |
E|------------------------------------------------|              |
    Am        							  \
           							   \
e|------------------------------------------------|                / x4
B|-----1--1--1--1--3--1--1--0--1------------------|               /
G|-----2--2--2--2--2--2--2--2--2------------------|              |
D|--3--3--3--3--3--3--3--3--3--3------------------|              |
A|------------------------------------------------|              |
E|------------------------------------------------|              |
    F								 |
                        					 |
e|----------------------3--3--3--3----------------|              |
B|-----1--1--1--1-------3--3--3--3----------------|              |
G|-----0--0--0--0-------0--0--0--0----------------|              |
D|-----2--2--2--2-------0--0--0--0----------------|              |
A|--3--3--3--3--3-------2--2--2--2----------------|              |
E|-------------------3--3--3--3--3----------------|  ------------
    C                G

e|-----------------------------------------------------|
B|-----------------------------------------------------|
G|------------55555555---------------------------------|
D|--77777777--55555555--55555555--88888888-------------| x2
A|--77777777--33333333--55555555--88888888-------------|
E|--55555555------------33333333--66666666-------------|

                                                       4th time end on:
e|-----------------|  |------------------|--------------------|    |---|
B|-----------------|  |------------------|--------------------|    |---|
G|-----------------|  |o-----------------|-----7-X-----7-----o|    |---|
D|--7-7-7-7-7-7-7/9|  |o-10-10-XX-5-5-XX-|-7-X-7-X-7-X-7-7/9-o| x4 |-7-|
A|--7-7-7-7-7-7-7/9|  |--10-10-XX-5-5-XX-|-7-X-5-X-7-X-5-7/9--|    |-7-|
E|--5-5-5-5-5-5-5/7|  |--8--8--XX-3-3-XX-|-5-X---X-5-X---5/7--|    |-5-|

e|-------------------------------------|    |-----------------|
B|-------------------------------------|    |-----------------|
G|-----5--------8-------3--------6-----|    |-----------------|
D|-3/5-5-55--8-88-88-3-3-33--6-66-66--| x4 |-5-5-5-5-5-5-5/7-|
A|-3/5-3-55--8-86-88--3-1-33--6-64-66--|    |-5-5-5-5-5-5-5/7-|
E|-1/3---33--6-6--66--1---11--4-4--44--|    |-3-3-3-3-3-3-3/5-|

                                     4th time end on 
e|----------------|--------------------|      |---|
B|----------------|--------------------|      |---|
G|o---------------|-----5-X-----5-----o| x4   |---|
D|o-8-8-XX-3-3-XX-|-5-X-5-X-5-X-5-5/7-o|      |-5-|
A|--8-8-XX-3-3-XX-|-5-X-3-X-5-X-3-5/7--|      |-5-|
E|--6-6-XX-1-1-XX-|-3-X---X-3-X---3/5--|      |-3-|

Not sure about this part, but its close.
e|-------3-3h5p3------6---6-6-------5---5-3h5p3------4---4-4-------|
B|-----3---------3------3-3---3-------3-3------3-------1-1---1b----|
G|o--0-------------0/3----3-----3/2-----2----------1-----1-----1/-o|
D|o---------------------------------------------------------------o| x3
A|-----------------------------------------------------------------|
E|-----------------------------------------------------------------|

e|--------------------------------------|------------------------------------------|
B|--------------------------------------|------------------------------------------|
G|--------------------------------------|--5---5---5---333333--5---5---5---3333-5~-|
D|--5-55-5---6-66-6---3-33-3---8-8-6-6--|--5---5---5---333333--5---5---5---3333-5~-|
A|--5-55-5---6-66-6---3-33-3---8-8-6-6--|--3---3---3---111111--3---3---3---1111-3~-|
E|--3-33-3---4-44-4---1-11-1---6-6-4-4--|------------------------------------------|

e|----------------------------------------------------|
B|----------------------------------------------------|
G|-5~---------5~-------------5~---------5~------------|
D|-5~---3~-6~-5~---3~-5-6~---5~---3~-6~-5~---3-3-6-6--|
A|-3~---3~-6~-3~---3~-5-6~---3~---3~-6~-3~---3-3-6-6--|
E|------1~-4~------1~-3-4~--------1~-4~------1-1-4-4--|

ROOOOOOOOOOOOCCCCCKKKKKK!!!!!
e|-----------------------------------------------------------|
B|-----------------------------------------------------------|
G|-----------8-8-7-----------8-8-7-----------8-8-7-5--7-8-10-|
D|-5-55-XXXX-8-8-7-5-55-XXXX-8-8-7-5-55-XXXX-8-8-7-5--7-8-10-| x2
A|-5-55-XXXX-6-6-5-5-55-XXXX-6-6-5-5-55-XXXX-6-6-5-3--5-6-8--|
E|-3-33-XXXX-------3-33-XXXX-------3-33-XXXX-----------------|

e|---------------------------------|
B|---------------------------------|
G|--------7~---33333333-55555555---|
D|--5~----7~---33333333-55555555---|
A|--5~----5~---11111111-33333333---|
E|--3~-----------------------------|
             PM .  .  .  .  .  .  

e|-----------------------------------------------------------|
B|-----------------------------------------------------------|
G|-----------8-8-7-----------8-8-7-----------8-8-7-5--7-8-10-|
D|-5-55-XXXX-8-8-7-5-55-XXXX-8-8-7-5-55-XXXX-8-8-7-5--7-8-10-| x3
A|-5-55-XXXX-6-6-5-5-55-XXXX-6-6-5-5-55-XXXX-6-6-5-3--5-6-8--|
E|-3-33-XXXX-------3-33-XXXX-------3-33-XXXX-----------------|

e|---------------------------------------------------------------------------|
B|---------------------------------------------------------------------------|
G|---------------------------------------------------------------------------|
D|---------------------------------------------------------------------------|
A|---------------------------------------------------------------------------|
E|--333333333333333333333333~~~~~\0------------------------------------------|



| /  slide up
| \  slide down
| h  hammer-on
| p  pull-off
| ~  vibrato
| +  harmonic
| x  Mute note
===============================================================================





Comments


Popular Tenacious D tabs & chords
Car Chase City Bass Tabs
Metal 2 Bass Tabs
Lee Chords
Roadie Chords
Dude I Totally Miss You 1 Tabs
Explosivo 3 Tabs
Kielbasa 1 Tabs
Medely (Intro) Tabs
Metal 3 Tabs
Rock Is Dead 2 Tabs


Song lyrics



↑ Back to top | Tablatures and chords are parodies/interpretations of the original songs. You may use it for private study, scholarship, research or language learning purposes only
© 2014 AZChords.com Contact us | Privacy policy | DMCA | Add/correct tabs | Request tabs | Top 50 tabs