>
 >
Beelzeboss 1

Beelzeboss 1 Bass Tabs

Tenacious D - Beelzeboss 1 chords, tabs, tablatures, lyrics

Guitar lessons | Add/correct | Request | Top 50 tabs Artists:  A B C D E F G H I J K L M N O P Q R S T U V W X Y Z 0-9

Beelzeboss 1 Bass Tabs – Tenacious D

CD, Sheet music, Poster

Do you like Beelzeboss 1? Share with your friends now
Bass TabsBass Tabs v2ChordsChords v2TabsTabs v2Tabs v3Tabs v4Tabs v5Ukulele
my first tab please rate
i think the end of "let the rock off begin" is a bit wrong. if you know what it should 
let me know. but besides that it should be right.


intro (10's,12's and 13's)
G|--------------------------------------------------|
D|--------------------------------------------------|
A|2~-2223~-3335~-5557~-7779~-99910~-10101012~-121212|
E|--------------------------------------------------|

G|----------------------------------------|
D|----------------------------------------|
A|13-13-131313-13-131313-13-131313-13-1313|
E|----------------------------------------|

G|------------------------------------------------|
D|------------------------------------------------|
A|131313131313131313131313131313131313131313131313|
E|------------------------------------------------|

"I Am Complete"
G|----------------------------|---------------------------------------| x2
D|----------------------------|---------------------------------------|
A|----------------------------|---------------------------------------|
E|--6-5--x-x-x--x-x------(x2)-|--6-5--x-x--5-6--x-x--6-5--x-x-x--x-x--|

G|----------------------------|-------------------------------|
D|----------------------------|-------------------------------|
A|----------------------------|----------------------------6--|
E|--6-5--x-x-x--x-x------(x2)-|--6-5--x-x--5-6--x-x--6-5-3----|

G|--------------------------------------2/4\-------|
D|--------------------0~---------------0-----------|
A|2~-25~-5--------------020~-00~------------0~-00~~|
E|--------2~-23~--3~-3-----------023~-3------------|

"Fuck... Fuck..."
G|------------------|--------------------------------------------------|
D|------------------|--------------------------------------------------|
A|--14/---14/-------|--2--2-2-2-2-2-2-2-2-2--5--5-5-5------------------|
E|------------------|----------------------------------2--2-2-2---(x3)-|

"If We Win..."
G|------------------------------------------------------------------------|
D|-------------------------------------------------------0----------------|
A|------------------0-(x8)-------------------------0-3-----0~-----0-0-0~--|
E|--0-(x16)------------------------0-(x16)-------------3------------------|

"And What If I Win"
G|--------------|----------|
D|--------------|----------|
A|--0-0-0~--(x2)|------0~--|
E|--------------|----------|

"You Can Take Kage..."
G|---------------------------------------------|
D|---------------------------------------------|
A|------------------------------------------3--|
E|--3~----3-3~----3-3-3~----3~----3-3-3-3-3----|

"let the rock off begin"
G|----------|-----------------------------| x3
D|----------|-----------------------------|
A|----------|3-2-5-4-7-6-10-9--22-22-22-22|
E|----------|-----------------------------|

G|-----------------------------------| x2
D|-----------------------------------|
A|2222222255555555--------22-22-22-22|
E|----------------22222222-----------|

"theres just no way"
G|------|
D|------|
A|[rest]|
E|------|

"c'mon kage now it's time...."
G|----------------------------------| x2
D|----------------------------------|
A|------------------6-6-6-6----8-888|
E|3-3-1331331-3-131--------6666-----|

"Hey Anti Christer..."
G|----------------------------------------------------------------------| x2
D|----------------------------------------------------------------------|
A|-------------------5-5-5-5-5-5-5-5-------------------5-5-5-5-5-5-5-5--|
E|--3-3-3-3-3-3-3-3-------------------6-6-6-6-6-6-6-6-------------------|

G|----------------------------------------------------------------------|
D|----------------------------------------------------------------------|
A|-------------------5-5-5-5-5-5-5-5------------------------------------|
E|--3-3-3-3-3-3-3-3-------------------6-6-6-6-6-6-6-6--1-1-1-1-1-1-1-1--|

"we are the D"
G|------------| x2
D|------------|
A|---5-5---8-8|
E|3-3---6-6---|

G|--------------------------------| x2
D|--------------------------------|
A|--------5555555566666666--------|
E|33333333----------------66666666|

G|------------------------------------------------|
D|------------------------------------------------|
A|------------------------------------------------|
E|--3---3-3-3-3---3-3-3-3---3-3-3-3-3-3-3-3-3--3--|

G|------------------------------------------------------| x2
D|------------------------------------------------------|
A|------------------------------------------------------|
E|3-1-3-33331-3-3331-3-33-31-3-1-6-5-6-66665-6-66-65-6-5|

G|------------------------------------------------|
D|------------------------------------------------|
A|5555555555555555-5-4-5-4-5-4-5-4-5-4-5-4-5-4-5-4|
E|------------------------------------------------|

"Nooooooooo"
G|-------------------------------------------------------------------------| x2
D|-------------------------------------------------------------------------|
A|--3-(x8)---2-(x8)---5-(x8)---4-(x8)---7-(x8)---6-(x8)--10-(x8)--9-(x8)---|
E|-------------------------------------------------------------------------|

"Ill Get You Tenacious DDDDDDDDD"
G|---------------------|---------------------------------------------------|
D|---------------------|---------------------------------------------------|
A|--10-(x8)---9--(x8)--|--10-9--10-9--10-9--10-9--10-9--10-9--10-9--10-9---|
E|---------------------|---------------------------------------------------|





Comments


Popular Tenacious D tabs & chords
Classico Intro Bass Tabs
Dio Chords
Kickapoo 1 Chords
Beelzeboss 4 Tabs
Kielbasa (Intro) Tabs
Medely (Intro) Tabs
Secrets Of Rock Tabs
To Be The Best Tabs
Dude I Totally Miss You Ukulele
Tribute Ukulele


Song lyrics



↑ Back to top | Tablatures and chords are parodies/interpretations of the original songs. You may use it for private study, scholarship, research or language learning purposes only
© 2014 AZChords.com Contact us | Privacy policy | DMCA | Add/correct tabs | Request tabs | Top 50 tabs