>
 >
Beelzeboss

Beelzeboss Guitar Tabs

Tenacious D - Beelzeboss chords, tabs, tablatures, lyrics

Guitar lessons | Add/correct | Request | Top 50 tabs Artists:  A B C D E F G H I J K L M N O P Q R S T U V W X Y Z 0-9

Beelzeboss Guitar Tabs – Tenacious D

CD, Sheet music, Poster

Do you like Beelzeboss? Share with your friends now
Bass TabsBass Tabs v2ChordsChords v2TabsTabs v2Tabs v3Tabs v4Tabs v5Ukulele
----------------------------------------------------------------------------
              BEELZESBOSS (THE FINAL SHOWDOWN) - Tenacious D
----------------------------------------------------------------------------

Tuning: Standard

Intro-
e|------------------------------------------------------------------|
B|------------------------------------------------------------------|
G|--4--4-4-4-4-4-4--5--5-5-5-5-5-5--7--7-7-7-7-7-7--9--9-9-9-9-9-9--|
D|--x--x-x-x-x-x-x--x--x-x-x-x-x-x--x--x-x-x-x-x-x--x--x-x-x-x-x-x--|
A|--2--2-2-2-2-2-2--3--3-3-3-3-3-3--5--5-5-5-5-5-5--7--7-7-7-7-7-7--|
E|------------------------------------------------------------------|
pm     . . .           . . .           . . .           . . .

e|-----------------------------------------------------------------------|
B|-----------------------------------------------------------------------|
G|--11--11-11-11-11-11-11--12--12-12-12-12-12-12--14--14-14-14-14-14-14--|
D|--x---x--x--x--x--x--x---x---x--x--x--x--x--x---x---x--x--x--x--x--x---|
A|--9---9--9--9--9--9--9---10--10-10-10-10-10-10--12--12-12-12-12-12-12--|
E|-----------------------------------------------------------------------|
pm      .  .  .                .  .  .                .  .  .

e|------------------------------------------------|-------------|
B|------------------------------------------------|-------------|
G|--15-15--15-15-15-15--15-15-15-15--15-15-15-15--|--15---------|
D|--x--x---x--x--x--x---x--x--x--x---x--x--x--x---|--x---(x24)--|
A|--13-13--13-13-13-13--13-13-13-13--13-13-13-13--|--13---------|
E|------------------------------------------------|-------------|

Devil Verse-
e|----------------------------|---------------------------------------|
B|----------------------------|---------------------------------------|
G|---------------------(x2)---|---------------------------------------| x2
D|----------------------------|---------------------------------------|
A|--8-7--x-x-x--x-x-----------|--8-7--x-x--7-8--x-x--8-7--x-x-x--x-x--|
E|--6-5--x-x-x--x-x-----------|--6-5--x-x--5-6--x-x--6-5--x-x-x--x-x--|

e|----------------------------|-------------------------------|
B|----------------------------|-------------------------------|
G|---------------------(x2)---|-------------------------------|
D|----------------------------|----------------------------8--|
A|--8-7--x-x-x--x-x-----------|--8-7--x-x--7-8--x-x--8-7-5-6--|
E|--6-5--x-x-x--x-x-----------|--6-5--x-x--5-6--x-x--6-5-3----|

The D Challenges-
e|--2~----2-5~----5-2~----2-3~----|--3~----3-5~----5-5~----|--5-5~---5~---|
B|--4~----4-7~----7-2~----2-3~----|--3~----3-7~----7-5~----|--5-5~---5~---|
G|--4~----4-7~----7-3~----3-4~----|--4~----4-7~----7-6~----|--6-6~---6~---|
D|--4~----4-7~----7-4~----4-5~----|--5~----5-7~----7-7~----|--7-7~---7~---|
A|--2~----2-5~----5-4~----4-5~----|--5~----5-5~----5-7~----|--7-7~---7~---|
E|------------------2~----2-3~----|--3~----3---------5~----|--5-5~---5~---|

e|--------3----5----5----5-5~---|
B|--------3----7----5----7-5~---|
G|--------4----7----6----7-6~---|
D|--------5~---7----7----7-7~---|
A|--------5~---5----7----5-7~---|
E|--0-2-3-3~--------5------5~---|
          ^    ^    ^
 just pick notes from these chords


The Devil Accepts The Challenge-
e|------------------|--------------------------------------------------|
B|------------------|--------------------------------------------------|
G|--16/-----16/-----|--------------------------------------------------|
D|--16/-----16/-----|--4--4-4-4-4-4-4-4-4-4--7--7-7-7------------(x3)--|
A|--14/-----14/-----|--2--2-2-2-2-2-2-2-2-2--5--5-5-5--4--4-4-4--------|
E|------------------|----------------------------------2--2-2-2--------|
pm                    (.) . . . . . . . . .     . . .     . . .
                       ^only pm on first time

e|-------------------------------|
B|-------------------------------|
G|-------------------------------|
D|--7~--------------2~-----------|
A|--7~--------------2~-----------|
E|--5~--------------0~-----------|

The D's Part Of The Deal
e|--0---------------0--------------0---------------0-0-3-2-0------0-0-0~--|
B|--0---------------1--------------0---------------2-1-3-3-3p2----2-3-2~--|
G|--1-(16 beats)----2-(8 beats)----1-(16 beats)----2-0-0-2-2------2-2-2~--|
D|--2---------------2--------------2---------------2-2-0-0-2~-----2-2-2~--|
A|--2---------------0--------------2---------------0-3-2---0~-----0-0-0~--|
E|--0------------------------------0-------------------3------------------|

"And What If I Win?"
   The D      Devil
e|--0-0-0~--|----------|
B|--1-1-1~--|----------|
G|--2-2-2~--|------2~--|
D|--2-2-2~--|------2~--|
A|--0-0-0~--|------0~--|
E|----------|----------|

e|--0-0-0~--|
B|--1-1-1~--|
G|--2-2-2~--|
D|--2-2-2~--|
A|--0-0-0~--|
E|----------|

The Devil's Part Of the Deal
e|--3~------3~----3-3-3~----3~------3-3-3-3-0--|
B|--3~------3~----3-3-3~----3~------3-3-3-3-1--|
G|--0~------0~----0-0-0~----0~------0-0-0-0-0--|
D|--0~------0~----0-0-0~----0~------0-0-0-0-2--|
A|--2~------2~----2-2-2~----2~------2-2-2-2-3--|
E|--3~----3-3~----3-3-3~----3~----3-3-3-3-3----|

The Rock Off Begins

The Devil
e|--------------------|----------------------------|
B|--------------------|----------------------------|
G|--------------------|--5--4--7--6--9--8--12--11--| x3
D|--4--x-x-x-x--(x4)--|--x--x--x--x--x--x--x---x---|
A|--2--x-x-x-x--------|--3--2--5--4--7--6--10--9---|
E|--------------------|----------------------------|

	Tasty Riff
e|-------7---------------7-----------------------------|
B|--7--7---10p7-10b-10---10p7---------------------s12--|
G|--9b------------------------9b-9b-9p7---7------------|
D|--------------------------------------9---9-p7-------|
A|-----------------------------------------------------|
E|-----------------------------------------------------|

        "I'm the Devil, I can do what I want..."
e|--------------------|--------------------|
B|--------------------|--------------------|
G|--4~----7~----------|--------------------|
D|--4~----7~----4~----|--4--x-x-x-x--(x4)--|
A|--2~----5~----4~----|--2--x-x-x-x--------|
E|--------------2~----|--------------------|

e|-----------------------------------------------------|
B|-----------------------------------------------------|
G|-----------------------------------------------------|
D|--4-4-4-4-4-4-4-4--7-7-7-7-7-7-7-7-------------------|
A|--2-2-2-2-2-2-2-2--5-5-5-5-5-5-5-5--4-4-4-4-4-4-4-4--|
E|------------------------------------2-2-2-2-2-2-2-2--|

e|--------------------|------|
B|--------------------|------|
G|--------------------|------|
D|--4--x-x-x-x--(x4)--|--7~--|
A|--2--x-x-x-x--------|--5~--|
E|--------------------|------|

The D
e|--------------------------------------------------------------------|
B|--------------------------------------------------------------------|
G|----------3--------------7---------------------------------------3--| x2
D|------5-----5--------8-----8---8----12-------12--------------5------|
A|----5---5-----5----8---8-----8---------12-------12----12---5---5----|
E|--3-------------\6---------------10-------10-------10----3----------|

e|------------------------------------------|
B|------------------------------------------|
G|----------3------------------12-----------|
D|------5-----5----------13-------13----13--|
A|----5---5-----5-----13----13-------13-----|
E|--3-------------\11-----------------------|

e|------------------------------------|
B|------------------------------------|
G|----------7--------------------11~--|
D|------8-----8---8--------12---------|
A|----8---8-----8--------12---12------|
E|--6-----------------10--------------|

"C'mon Kage Now It's Time To Blow Doors Down!"
e|-------------------------------6--6--6-6-6--6-6-6--8---8--8--8---|
B|-------------------------------8--8--8-8-8--6-6-6--10--10-10-10--|
G|-------------------------------8--8--8-8-8--7-7-7--10--10-10-10--| x2
D|--5--5--5-3-5-3-5-5-3-5-3-5-3--8--8--8-8-8--8-8-8--10--10-10-10--|
A|--5--5--5-3-5-3-5-5-3-5-3-5-3--6--6--6-6-6--8-8-8--8---8--8--8---|
E|--3--3--3-3-3-3-3-3-3-3-3-3-3---------------6-6-6----------------|

e|-------------------------------6--6--6-6-6--6-6-6------------|
B|-------------------------------8--8--8-8-8--6-6-6------------|
G|-------------------------------8--8--8-8-8--7-7-7--2--2-2-2--|
D|--5--5--5-3-5-3-5-5-3-5-3-5-3--8--8--8-8-8--8-8-8--3--3-3-3--|
A|--5--5--5-3-5-3-5-5-3-5-3-5-3--6--6--6-6-6--8-8-8--3--3-3-3--|
E|--3--3--3-3-3-3-3-3-3-3-3-3-3---------------6-6-6--1--1-1-1--|

e|-------------------------------6--6--6-6-6--6-6-6----------------|
B|-------------------------------8--8--8-8-8--6-6-6----------------|
G|-------------------------------8--8--8-8-8--7-7-7--12--12-12-12--|
D|--5--5--5-3-5-3-5-5-3-5-3-5-3--8--8--8-8-8--8-8-8--12--12-12-12--|
A|--5--5--5-3-5-3-5-5-3-5-3-5-3--6--6--6-6-6--8-8-8--10--10-10-10--|
E|--3--3--3-3-3-3-3-3-3-3-3-3-3---------------6-6-6----------------|

"Hey Anti-Christer..."
e|----------------------------------------------------------------------|
B|----------------------------------------------------------------------|
G|-------------------7-7-7-7-7-7-7-7-------------------7-7-7-7-7-7-7-7--| x2
D|--5-5-5-5-5-5-5-5--7-7-7-7-7-7-7-7--8-8-8-8-8-8-8-8--7-7-7-7-7-7-7-7--|
A|--5-5-5-5-5-5-5-5--5-5-5-5-5-5-5-5--8-8-8-8-8-8-8-8--5-5-5-5-5-5-5-5--|
E|--3-3-3-3-3-3-3-3-------------------6-6-6-6-6-6-6-6-------------------|

e|----------------------------------------------------------------------|
B|----------------------------------------------------------------------|
G|-------------------7-7-7-7-7-7-7-7------------------------------------|
D|--5-5-5-5-5-5-5-5--7-7-7-7-7-7-7-7--8-8-8-8-8-8-8-8--3-3-3-3-3-3-3-3--|
A|--5-5-5-5-5-5-5-5--5-5-5-5-5-5-5-5--8-8-8-8-8-8-8-8--3-3-3-3-3-3-3-3--|
E|--3-3-3-3-3-3-3-3-------------------6-6-6-6-6-6-6-6--1-1-1-1-1-1-1-1--|

	(Electric guitar)
e|----------------------------------------------|
B|----------------------------------------------|
G|-------------7----7--7-------------7----7--7--| x2
D|--5----5--5--x----x--x--8----8--8--x----x--x--|
A|--x----x--x--5----5--5--x----x--x--5----5--5--|
E|--3----3--3-------------6----6--6-------------|

e|-------------------------------------------------|
B|-------------------------------------------------|
G|-------------7----7--7-------------10----10--10--|
D|--5----5--5--x----x--x--8----8--8--x-----x---x---|
A|--x----x--x--5----5--5--x----x--x--8-----8---8---|
E|--3----3--3-------------6----6--6----------------|

We Are The D
e|--------------------------|
B|--------------------------|
G|--------7--7--3--3--------| x2
D|--5--5--7--7--3--3--3--3--|
A|--5--5--5--5--1--1--3--3--|
E|--3--3--------------1--1--|

e|-------------------------------------------------------------------|
B|-------------------------------------------------------------------|
G|------------------7-7-7-7-7-7-7-7-3-3-3-3-3-3-3-3------------------| x2
D|--5-5-5-5-5-5-5-5-7-7-7-7-7-7-7-7-3-3-3-3-3-3-3-3-3-3-3-3-3-3-3-3--|
A|--5-5-5-5-5-5-5-5-5-5-5-5-5-5-5-5-1-1-1-1-1-1-1-1-3-3-3-3-3-3-3-3--|
E|--3-3-3-3-3-3-3-3---------------------------------1-1-1-1-1-1-1-1--|

e|------------------------------------------------|
B|------------------------------------------------|
G|------------------------------------------------|
D|--5---5-5-5-5---5-5-5-5---5-5-5-5-5-5-5-5-5--5--|
A|--5---5-5-5-5---5-5-5-5---5-5-5-5-5-5-5-5-5--5--|
E|--3---3-3-3-3---3-3-3-3---3-3-3-3-3-3-3-3-3--3--|

The Devil Response
e|-------------------------------------------------------------------------|
B|-------------------------------------------------------------------------|
G|-------------------------------------------------------------------------|
D|-------------------------------------------------------------------------|
A|-------------------------------------1-0-1-x-1-1-0-1-x-1-1-0-1-x-1-1-0-1-|
E|-3-1-3-x-3-3-1-3-x-3-3-1-3-x-3-3-1-3-------------------------------------|

Devil Loses Horn
e|-------------------------------------------------------------------|
B|-------------------------------------------------------------------|
G|-------------------------------------------------------------------|
D|-------------------------------------------------------------------|
A|-5-5-5-5-5-5-5-5-5-5-5-5-5-5-5-5--5-4-5-4-5-4-5-4-5-4-5-4-5-4-5-4--|
E|-------------------------------------------------------------------|

Devil Goes Back To Hell
e|--------------------------------------------------------------------|
B|--------------------------------------------------------------------|
G|--------------------------------------------------------------------| x2
D|--5-------4-------7-------6-------9-------8-------12-------11-------|
A|--3-(x8)--2-(x8)--5-(x8)--4-(x8)--7-(x8)--6-(x8)--10-(x8)--9--(x8)--|
E|--------------------------------------------------------------------|

e|---------------------|---------------------------------------------------|
B|---------------------|---------------------------------------------------|
G|---------------------|---------------------------------------------------|
D|--12--------11-------|--12-11-12-11-12-11-12-11-12-11-12-11-12-11-12-11--|
A|--10-(x8)---9--(x8)--|--10-9--10-9--10-9--10-9--10-9--10-9--10-9--10-9---|
E|---------------------|---------------------------------------------------|

End
e|--------------|--1-1-1~--------|------|
B|--------------|--3-3-3~--------|------|
G|--------------|--2-2-2~--------|------|
D|--12~---------|--0-0-0~--------|--0~--|
A|--12~---------|----------------|------|
E|--10~---------|----------------|------|
  Electric ^      Acoustic ^      Bell ^


|   pm  palm mute
|   ~   let note ring
|   /   slide down
|   \   slide up
|   b   bend
|   x   mute note
============================================================================

Thanks to seanm42 for the Tasty Riff!!!
Thanks to andy for all your help!!!
Thanks to james for helpin me out!!!

IM me at gdrocks2230.  Thanks for lookin at my tab and PLEASE RATE IT or COMMENT.

  let me know what you think!





Comments


Popular Tenacious D tabs & chords
Baby 1 Chords
Pod Chords
Tribute Chords
Dio Tabs
Double Team Tabs
Hbo Episode 2 Tabs
Sasquatch Tabs
Explosivo Ukulele
Friendship Ukulele
Roadie Ukulele


Song lyrics



↑ Back to top | Tablatures and chords are parodies/interpretations of the original songs. You may use it for private study, scholarship, research or language learning purposes only
© 2014 AZChords.com Contact us | Privacy policy | DMCA | Add/correct tabs | Request tabs | Top 50 tabs