>
 >
Not My Kinda Scene

Not My Kinda Scene Guitar Tabs

Powderfinger - Not My Kinda Scene chords, tabs, tablatures, lyrics

Guitar lessons | Add/correct | Request | Top 50 tabs Artists:  A B C D E F G H I J K L M N O P Q R S T U V W X Y Z 0-9

Not My Kinda Scene Guitar Tabs – Powderfinger

CD, Sheet music, Poster

Do you like Not My Kinda Scene? Share with your friends now
TabsTabs v2
This is a rather cool song, so here is a rather cool tab for it :P.
If you want to use this tab for your own site or whatever, just
might just let you use it.  Either way, rock on peoples.


INTRO:
------

GUITAR 1
e|---------------------------------|
B|---------------------------------|
G|---------------------------------|
D|---------------------------------|
A|---3--3--3--3-3--3--3-3-3-3------|
E|---------------------------------|

e|--------------------------------------------------------------|
B|--------------------------------------------------------------|
G|--------------------------------------------------------------|
D|--------------------------------------------------------------|
A|--0--0--0--0-0--0--0------------------------------------------|
E|----------------------3--3--3--3-3--3--3--1--1--1--1-1--1--1--|

GUITAR 2 - 0:45
e|------------------------------------------|
B|--------1----------0----------1--------1--|
G|----2----------0----------2------2---2----|
D|------2----------0------3---3------3------|
A|--0---------------------------------------|
E|-------------3----------------------------|



CHORUS:
-------

GUITAR 1 
e|-0-|-0-|-1-|-0--3-|
B|-1-|-0-|-1-|-1--3-|
G|-0-|-1-|-2-|-2--0-| PLAY
D|-2-|-2-|-3-|-2--0-|  x2
A|-3-|-2-|-3-|-0--2-|
E|---|-0-|-1-|----3-|

GUITAR 2
e|-------------------------------------------------------|
B|------5-----------5-----------6---------1--------0-----|
G|----5---5-------4---4-------5---5-------2--------0-----| PLAY
D|--5-----------2-----------3-----------2---2----0---0---|  X2
A|------------------------------------0------------------|
E|---------------------------------------------3---------|



POST-CHORUS:
------------

GUITAR 1 - Same as intro.

GUITAR 2
e|-----------------------------------7--|
B|----------8--------8-------8----------|
G|-----9--------9-------9-------9-------|
D|--10---10-------10------10------10----|
A|--------------------------------------|
E|--------------------------------------|



VERSE 2:
--------

GUITAR 1 - Same as intro but plays end bit twice.

GUITAR 2
e|--------------------------------------|
B|----------8--------8-------8----------|
G|-----9--------9-------9-------9----9--| PLAY
D|--10---10-------10------10------10----|  x2 
A|--------------------------------------|
E|--------------------------------------|

e|-----------------------------------7--|
B|----------8--------8-------8----------|
G|-----9--------9-------9-------9-------|
D|--10---10-------10------10------10----|
A|--------------------------------------|
E|--------------------------------------|

GUITAR 2 END VERSE (1:45)
e|-----------------------------------------|
B|--------1----------0----------1--------1-|
G|----2----------0----------2------2---2---| PLAY
D|------2----------0------3---3------3-----|  x2
A|--0--------------------------------------|
E|-------------3---------------------------|



CHORUS:
-------



BRIDGE:
-------

e|----------------------------------------|
B|--5-5---5-3-5-5--5-3-5-5--5-3-5-5--5-5--|
G|--5-5---5-5-5-5--5-5-5-5--5-5-5-5--5-5--|
D|----------------------------------------|
A|----------------------------------------|
E|----------------------------------------|


SOLO:
-----

GUITAR 1
e|---------------------------------------------|
B|---------------------------------------------|
G|---------------------------------------------|
D|---------------------------------------------|
A|--3-5-3-5/7---5P3-5--3-5-3-5/7--7-7-7-7-7-7--|
E|---------------------------------------------|

e|--------------------------------------------------|
B|---------------------------------5----------------|
G|---------------------------------7b9--9b7----5h7--|
D|--7~~-5~~~-5~~~--7~~~-9~~~-7~~~------------7------|
A|--------------------------------------------------|
E|--------------------------------------------------|


GUITAR 2 - Pick eacho note rapidly.
e|-12-|-10-|-8-10-8-|-10/12-|
B|----|----|--------|-------|
G|----|----|--------|-------|
D|----|----|--------|-------|
A|----|----|--------|-------|
E|----|----|--------|-------|

e|-12-|-10-|-10-|-8-10-|
B|----|----|----|------|
G|----|----|----|------|
D|----|----|----|------|
A|----|----|----|------|
E|----|----|----|------|

e|---|---|---|------|
B|---|---|---|------| PLAY
G|-5-|-4-|-5-|-5--7-|  x2
D|---|---|---|------|
A|---|---|---|------|
E|---|---|---|------|

e|-12-|-10-|-12-|
B|----|----|----|
G|----|----|----|
D|----|----|----|
A|----|----|----|
E|----|----|----|



---------------------------------------------
---------------------------------------------





Comments


Popular Powderfinger tabs & chords
Burn Your Name 1 Chords
Lost And Running Chords
Sail The Wildest Stretch Chords
Sink Low Chords
The Metre Chords
A Song Called Everything Tabs
My Happiness 1 Tabs
On My Mind 1 Tabs
Turtle Head Tabs
These Days Ukulele


Song lyrics



↑ Back to top | Tablatures and chords are parodies/interpretations of the original songs. You may use it for private study, scholarship, research or language learning purposes only
© 2014 AZChords.com Contact us | Privacy policy | DMCA | Add/correct tabs | Request tabs | Top 50 tabs