>
 >
Love Your Way

Love Your Way Guitar Tabs

Powderfinger - Love Your Way chords, tabs, tablatures, lyrics

Guitar lessons | Add/correct | Request | Top 50 tabs Artists:  A B C D E F G H I J K L M N O P Q R S T U V W X Y Z 0-9

Love Your Way Guitar Tabs – Powderfinger

CD, Sheet music, Poster

Do you like Love Your Way? Share with your friends now
ChordsDrum TabsDrum Tabs v2TabsUkulele
i take no credit fo this tab. im tabbing it on ultimate, cause i need to go through 100 
links to find it, so here it is.

It is 100% Correct..

Tuning: open E tuning (low to hi, E B E G# B E)

intro
E |-------0-----------0--0----|--5---------5------5--------|
B |-------0-----------0--0----|--5---------5------5--------|
G#|-------1-----------1--0----|--5-h-6--6--6------6--0-----|
E |--2----2-----------2--0----|--5------5--5------5--0-----|
B |--2----2-----------2--0----|--5-h-7--7--7------7--0-----|
E |--2----------------2--0----|--5-------------------0-----|


Band joins in here
E |-----|---------------------------|
B |-----|---------------------------|
G#|-----|---------------------------|
E |-5-5-|-5---5-5-5---7-7-7---7-7-7-|
B |-3-3-|-3---5-5-5---5-5-5---7-7-7-|
E |-----|-----5-5-5-----------7-7-7-|


 (standard tuning)
E |-2-2-|-2---0-0-0---0-0-0---------|
B |-3-3-|-3---2-2-2---0-0-0---4-4-4-|
G |-2-2-|-2---2-2-2---1-1-1---4-4-4-|
D |-0-0-|-0---2-2-2---2-2-2---4-4-4-|
A |-0-0-|-0---0-0-0---2-2-2---2-2-2-|
E |-----|-------------0-0-0---------|

mainly second guitar comes in here
F#m E D
E |-0----0---2----|
B |-0----0---3----|
G |-2----1---2----|
D |-4----2---0----|
A |-4----2---0----|
E |------0--------|


guitar 3 over top
F#m E D
E |------------------------------------------------------------|
B |----------10--------12--10-------------10----------10-------|
G |---9h11-------11------------11---9h11------11--11-----------|
D |------------------------------------------------------------|
A |------------------------------------------------------------|
E |------------------------------------------------------------|

F#m E D
E |---------------------------------12-----12------10-----10---|
B |----------10--------12p10----10-----------------------------|
G |---9h11-------11----------11---------11----11-------11------|
D |------------------------------------------------------------|
A |------------------------------------------------------------|
E |------------------------------------------------------------|

verse 2, with slide guitar (not tabbed)

F#m E D
wading in deeper......


then big accented bit again


play these chords over for the ending
D A E B
E |-2--2--0--0--0--0-------|
B |-3--3--2--2--0--0--4--4-|
G |-2--2--2--2--1--1--4--4-|
D |-0--0--2--2--2--2--4--4-|
A |-0--0--0--0--2--2--2--2-|
E |-------------0--0-------|

doubled also as bar chords


D A E B
E |------------------------|
B |-7--7--5--5--9--9--7--7-|
G |-7--7--6--6--9--9--8--8-|
D |-7--7--7--7--9--9--9--9-|
A |-5--5--7--7--7--7--9--9-|
E |-------5--5--------7--7-|





Comments


Popular Powderfinger tabs & chords
My Happiness Chords
Surviving Chords
Up And Down And Back Again Chords
Capocity Tabs
Glimpse Tabs
On My Mind 1 Tabs
On My Mind Complete Tabs
Burn Your Name Ukulele
Sink Low Ukulele
Wishing On The Same Moon Ukulele


Song lyrics



↑ Back to top | Tablatures and chords are parodies/interpretations of the original songs. You may use it for private study, scholarship, research or language learning purposes only
© 2014 AZChords.com Contact us | Privacy policy | DMCA | Add/correct tabs | Request tabs | Top 50 tabs