» » »

Powderfinger, Hindley Street Tabs (ver.1)

Artists:  A B C D E F G H I J K L M N O P Q R S T U V W X Y Z # 

Hindley Street Tabs (ver.1)

Powderfinger Tabs
 Rating:
4.2/5 (5 votes)
Hindley Street lessons Tabs too difficult? Try these video lessons and learn fast
                Artist : Powderfinger
Title : Hindley Street
Tuning Standard (EADGBE)

INTRO:
E-|---------------------------------------------|-
B-|---------------5-------5------5-------5----5-|-
G-|-----0h5---5----5---------5---5---------5--5-|-
D-|-----0h5---5------5-----------5----5-------5-|-
A-|-0h3-----------------------------------------|-
E-|---------------------------------------------|-

E-|---------------------------------|-
B-|----------------------3----------|-
G-|-----0--------0-------3--------2-|-
D-|---2-2---5--5-5---3-3-3---3--3-3-|-(x 2)
A-|-3-------6--6-6---1-------3--3-3-|-
E-|--------------------------1--1-1-|-

VERSE CHORDS:
E-|----------------------------|-
B-|-1-1-1--3-3-3--3-3-3--1-1-1-|-
G-|-0-0-0--0-0-0--3-3-3--2-2-2-|-
D-|-2-2-2--5-5-5--3-3-3--3-3-3-|-
A-|-3-3-3--6-6-6--1-1-1--3-3-3-|-
E-|----------------------1-1-1-|-

PRE CHORUS:
E-|-0-|-4-|-0-|-4-|--------------------------|------------------------|-
B-|-1-|-4-|-1-|-4-|---3--3--3-3--3-3--3--3-3-|-3--3--3-3--3-3--3--3-3-|-
G-|-0-|-5-|-0-|-5-|---4--4--4-4--4-4--4--4-4-|-4--4--4-4--4-4--4--4-4-|-
D-|-2-|-6-|-2-|-6-|---5--5--5-5--5-5--5--5-5-|-5--5--5-5--5-5--5--5-5-|-
A-|-3-|-6-|-3-|-6-|---5--5--5-5--5-5--5--5-5-|-5--5--5-5--5-5--5--5-5-|-
E-|---|-4-|---|-4-|---3--3--3-3--3-3--3--3-3-|-3--3--3-3--3-3--3--3-3-|-

CHORUS CHORDS:
E-|--0-0-0--0-0-0---------------|-
B-|--1-1-1--1-1-1--3-3-3--1-1-1-|-
G-|--0-0-0--0-0-0--3-3-3--2-2-2-|-
D-|--2-2-2--2-2-2--3-3-3--3-3-3-|-
A-|--3-3-3--3-3-3--1-1-1--3-3-3-|-
E-|-----------------------1-1-1-|-

SOLO: (still needs some work)
E-|-------------------------------------------------------------------------|-
B-|-------------------------------------------------------------------------|-
G-|-------------------------------------------------------------------------|-
D-|--3h5-5-5----------------------------------------------------------------|-
A-|--3---3-3--3--3--3h5-5-5-6-5--5p3-3-3p1-1-1h3-3-3-5h3-5/65---6-5-6/8-8~-|-
E-|-------------------------------------------------------------------------|-

E-|-------------------------------------------10~-10-------------8-8-8----8-8-|-
B-|--------------------------------------8~-8h10~-10------/10-108-8-8/10~8-8-|-
G-|--------------------------------8~----8~-8h10~-10-10p8-/10-108-8-8/10~8-8-|-
D-|-------8~----8h10~----8~-8-8h10----10--------------------------------------|-
A-|-88h10----10-------10------------------------------------------------------|-
E-|---------------------------------------------------------------------------|-

OUTRO CHORDS:
E-|--0-0-0--0-0-0---------------|-
B-|--1-1-1--1-1-1--3-3-3--1-1-1-|-
G-|--0-0-0--0-0-0--3-3-3--2-2-2-|-
D-|--2-2-2--2-2-2--3-3-3--3-3-3-|-
A-|--3-3-3--3-3-3--1-1-1--3-3-3-|-
E-|-----------------------1-1-1-|-

OUTRO RIFF
E-|-18~----12h13p12--12h13p12---------------|-
B-|----------------------------13~--11~--13~-|-
G-|------------------------------------------|-
D-|------------------------------------------|-
A-|------------------------------------------|-
E-|------------------------------------------|-
            
Submit corrections

comments powered by Disqus
↑ Back to top | Powderfinger Tabs for Hindley Street. Lyrics for acoustic guitar and electric guitar. Tablatures and chords are parodies/interpretations of the original songs. You may use it for private study, scholarship, research or language learning purposes only