» » »

Powderfinger, My Happiness Tabs (ver.1)

Artists:  A B C D E F G H I J K L M N O P Q R S T U V W X Y Z # 

My Happiness Tabs (ver.1)

Powderfinger Tabs
 Rating:
4/5 (21 vote)
My Happiness lessons Tabs too difficult? Try these video lessons and learn fast
                

INTRO:
           Fmaj7     C     Fmaj7     C
           1   2   3   4   1   2   3   4
E|------|--0-------------0-----------------|
B|--1-3-|*---------1---3---------1---1-3--*|
G|2-----|------2-------------2-----2-------|
D|------|----------------------------------|
A|------|*--------------------------------*|
E|------|----------------------------------|

           Fmaj7         C           Fmaj7  C
I see your shadow on the street now
           Fmaj7            C           Fmaj7  C
I hear you push through the rusty gate
              Fmaj7        C         Fmaj7  C
Click of your heels on the concrete
              Fmaj7        C            Fmaj7  C
Waiting for a knock coming way too late
            Fmaj7          C         Fmaj7  C
It seems an age since I've seen you
                 Fmaj7         C         Fmaj7  C
Countdown as the weeks trickle into days

BRIDGE:

Em                               Am
So you come in and put your bags down
Em                              Am
I know there's something in the air
Em                             G
How can I do this to you right now
                                           F
If you're over there when I need you here


CHORUS:
   C    G       F
My happiness is slowly creeping back
    C         G
Now you're at home
F                 C       G
If it ever starts sinking in
   F                     C      G
It must be when you pack up and go


REPEAT INTRO


            Fmaj7          C         Fmaj7  C
It seems an age since I've seen you
                 Fmaj7         C         Fmaj7  C
Countdown as the weeks trickle into days
            Fmaj7               C    Fmaj7  C
I hope that time hasn't changed you
             Fmaj7       C      Fmaj7  C
All I really want is for you to stay


REPEAT BRIDGE
REPEAT CHORUS


F               C              G     F
I know I know I know what is inside
F               C              G     F
I know I know I know what is inside
F               C              G     F
I know I know I know what is inside
F               C              G
I know I know I know what is inside


SOLO:
           Fmaj7     C     Fmaj7     C
           1   2   3   4   1   2   3   4
E|------|--0-------------0-----------------|
B|--1-3-|*---------1---3---------1---1-3--*|
G|2-----|------2-------------2-----2-------|
D|------|----------------------------------|
A|------|*--------------------------------*|
E|------|----------------------------------|

    Fmaj7     C     Fmaj7     C
    1   2   3   4   1   2   3   4   
E|--5-------5-------3-------3---3---|
B|*-----5-----5--------------------*|
G|----------------------------------|
D|----------------------------------|
A|*--------------------------------*|
E|----------------------------------|

   G
   1   2   3   4   1   2   3   4   
E|---------------------------------|
B|-3-------3h5-----5h6-----6h8-----|
G|---------------------------------|
D|---------------------------------|
A|---------------------------------|
E|---------------------------------|
             you're there   you here
             over   when I
                    need

REPEAT CHORUS x2

   F               C               G               F
   1       2       3       4       1       2       3       4   
E|------------------------------------------------------------------|
B|-------------------------5-3---------------------3-5-3---1--------|
G|-2h5---2h5---2h5---2h5-------------------------bend-bend----------|
D|------------------------------------------------up--down----------|
A|------------------------------------------------------------------|

   F               C               G
   1       2       3       4 
E|---------------------------------|
B|-------------------------5-3-----|
G|-2h5---2h5---2h5---2h5-----------|
D|---------------------------------|
A|---------------------------------|
E|---------------------------------|
            
Submit corrections

comments powered by Disqus
↑ Back to top | Powderfinger Tabs for My Happiness. Lyrics for acoustic guitar and electric guitar. Tablatures and chords are parodies/interpretations of the original songs. You may use it for private study, scholarship, research or language learning purposes only