>
 >
On My Mind

On My Mind Bass Tabs

Powderfinger - On My Mind chords, tabs, tablatures, lyrics

Guitar lessons | Add/correct | Request | Top 50 tabs Artists:  A B C D E F G H I J K L M N O P Q R S T U V W X Y Z 0-9

On My Mind Bass Tabs – Powderfinger

CD, Sheet music, Poster

Do you like On My Mind? Share with your friends now
Bass TabsTabsTabs v2Tabs v3Tabs v4
#################################################################
           Powderfinger - (baby i got you)On my mind
#################################################################
First tab ever, don't normally tab but was annoyed there was no bass tab for this song. 
free to make small adjustments i didn't really take the time to get the rythmic 
perfect, listen to the song for timing. not exact, especially at the end but gives you a good idea

slide - /
hammeron - h
muted note - x

Intro
Just guitar at first, then bass comes in with drums:-

G|--------------------------------------------|
D|--------------------------------------------|
A|--------------------------------6-66-6------|
E|-6--6--6--6--6--6/8-4--4--4-----------------|
 baby i got you on my mind, hunny you won't ever know

G|---------------------------------------------|
D|---------------------------------------------|
A|--------------------------------6--6--6------|
E|-6--6--6--6--6--6/8-4--x4--x4----------------|
 how much i need you by my side, promis you won't ever go

G|--------------------------------------------|
D|--------------------------------------------|
A|--------------------------------66-6--66----|
E|-6--6--6--6--6--6/8-4--4--4-----------------|
 i won't take no from you this time

G|--------------------------------------------|
D|--------------------------------------------|
A|--------------------------------66-6--66----|
E|-6--6--6--6--6--6/8-4--4--4-----------------|
 cause baby i got you on my mind

G|-------------------------------------------------------|
D|-------------------------------------------------------|
A|-----------------------------6/-6/-6/-6/---6/-6/-6/-6/-|
E|-6/-6/-6/-6/---6/-6/-6/-6/-----------------------------|
 yeah hunny i gotta show, just what i can do..

G|-----------------|
D|-3---------------|
A|----6---4--------|
E|------------1----|
 i hope you feel it the way i feel it...

G|--------------------------------------------|
D|--------------------------------------------|
A|--------------------------------66-66-6-----|
E|-6--6--6--6--6--6/8-4--4--4-----------------|
                            yeah, i feel it too

G|----------------------------------------------|
D|----------------------------------------------|
A|--------------------------------6--6--6-------|
E|-6--66--66--6--66--6/8-4--4--4----------------|

G|--------------------------------------------|
D|--------------------------------------------|
A|--------------------------------66-6--66----|
E|-6--6--6--6--6--6/8-4--4--4-----------------|
so if i had this on my way

G|---------------------------------------------|
D|---------------------------------------------|
A|--------------------------------66-6--66-----|
E|-6--6--6--6--6--6/8-4--x4--x4----------------|
be there through every night and day

G|--------------------------------------------|
D|--------------------------------------------|
A|--------------------------------66-6--66----|
E|-6--6--6--6--6--6/8-4--4--4-----------------|
i won't hold back from you this time

G|--------------------------------------------|
D|--------------------------------------------|
A|--------------------------------66-6--66----|
E|-6--6--6--6--6--6/8-4--4--4-----------------|

G|-------------------------------------------------------|
D|-------------------------------------------------------|
A|-----------------------------6/-6/-6/-6/---6/-6/-6/-6/-|
E|-6/-6/-6/-6/---6/-6/-6/-6/-----------------------------|
 yeah hunny i gotta show, just what i can do..

G|-----------------|
D|-3---------------|
A|----6---4--------|
E|------------1----|
 hope you feel it the way i feel it
    (this time let the F ring and mute exsactly when the guitar comes in)

G|---------------------------------------|
D|-------------------------------------*-|
A|----------------------------6666666--*-|
E|-666666666666666h8-44444444------------| x 4
     ah.. yeah ...    i tell you i won't wait for another day...

G|------------------------------888888--|
D|-----------------------666666---------|
A|---------6666---6h86------------------|
E|-666-999------9------9----------------|
 (roughly)

G|--------------------------------------|
D|--------------------------------------|
A|----------------------------6666666---|
E|-666666666666666h8-44444444-----------|

G|------------------------------888888--|
D|-----------------------666666---------|
A|---------6666---6h86------------------|
E|-666-999------9------9----------------|

G|------------------------------88888h1086--|
D|-----------------------666666-------------|
A|---------6666---6h86----------------------|
E|-666-999------9------9--------------------|

G|-------|
D|-------|
A|-------|





Comments


Popular Powderfinger tabs & chords
The Metre Chords
Fathers’ Pyramid Tabs
Grave Concern Tabs
My Kinda Scene Tabs
On My Mind 4 Tabs
Passenger Tabs
Since You've Been Gone Tabs
Stumblin 1 Tabs
Already Gone Ukulele
Dont Panic Ukulele


Song lyrics



↑ Back to top | Tablatures and chords are parodies/interpretations of the original songs. You may use it for private study, scholarship, research or language learning purposes only
© 2014 AZChords.com Contact us | Privacy policy | DMCA | Add/correct tabs | Request tabs | Top 50 tabs