>
 >
Not My Kinda Scene 1

Not My Kinda Scene 1 Guitar Tabs

Powderfinger - Not My Kinda Scene 1 chords, tabs, tablatures, lyrics

Guitar lessons | Add/correct | Request | Top 50 tabs Artists:  A B C D E F G H I J K L M N O P Q R S T U V W X Y Z 0-9

Not My Kinda Scene 1 Guitar Tabs – Powderfinger

CD, Sheet music, Poster

Do you like Not My Kinda Scene 1? Share with your friends now
TabsTabs v2
_____  
                  ____     _____   __ __ __   _______   |  ___|   _____  
                 |  _  \ /  __  \ |  \/ \/ | |   _   \  | |___   |  [] \
                 | |_| | | |  | | |        | |  | |   | |  ___|  |  _  | 
                 | ___/  | |__| | |        | |  |_/   | | |___   | | \ \
                 |_|      \_____/  \__/\__/  |______ /  |_____|  |_|  \_|  
                                                      _____                   
                      _____      ___  __    _____    |  ___|   _____       
                     |   __| [_] |  \/  |  /  ___\   | |___   |  [] \     
                     |  |__  | | |      |  | |[_ _]  |  ___|  |  _  |      
                     |  ___| | | |  ^   |  | |_| |   | |___   | | \ \         
                     |_|     |_| |_/ \__|   \____/   |_____|  |_|  \_| 

                        ___________________________
                       |                           |
                       | ARTIST: POWDERFINGER      |
                       | SONG: NOT MY KINDA SCENE  |
                       |___________________________|


INTRO

GUITAR 1
intro/verse
e-|---------------------------------------------------------|
B-|---------------------------------------------------------|
G-|---------------------------------------------------------|
D-|---------------------------------------------------------|
A-|--33333333333333333333333333333333333333333333333333333--|
E-|---------------------------------------------------------|

e-|---------------------------------------------------------|
B-|---------------------------------------------------------|
G-|---------------------------------------------------------|
D-|---------------------------------------------------------|
A-|-0000000000000000----------------------------------------|
E-|-------------------333333333333333--1111111111111111111--|


GUITAR 2 - 0:45
e|------------------------------------------|
B|--------1----------0----------1--------1--|
G|----2----------0----------2------2---2----|
D|------2----------0------3---3------3------|
A|--0---------------------------------------|
E|-------------3----------------------------|



CHORUS

GUITAR 1 
e|-0--0|-0--0|-1--1|-0-|-3-|
B|-1--1|-0--0|-1--1|-1-|-3-|
G|-0--0|-1--1|-2--2|-2-|-0-| PLAY
D|-2--2|-2--2|-3--3|-2-|-0-|  x2
A|-3--3|-2--2|-3--3|-0-|-2-|
E|-----|-0--0|-1--1|---|-3-|

GUITAR 2
e|-------------------------------------------------------|
B|------5-----------5-----------6---------1--------0-----|
G|----5---5-------4---4-------5---5-------2--------0-----| PLAY
D|--5-----------2-----------3-----------2---2----0---0---|  X2
A|------------------------------------0------------------|
E|---------------------------------------------3---------|



PRE-CHORUS

GUITAR 1 - PLAY THE INTRO AGAIN

GUITAR 2
e|-----------------------------------7--|
B|----------8--------8-------8----------|
G|-----9--------9-------9-------9-------|
D|--10---10-------10------10------10----|
A|--------------------------------------|
E|--------------------------------------|



VERSE 2:

GUITAR 1 -PLAY THE INTRO AGAIN

GUITAR 2
e|--------------------------------------|
B|----------8--------8-------8----------|
G|-----9--------9-------9-------9----9--| PLAY
D|--10---10-------10------10------10----|  x2 
A|--------------------------------------|
E|--------------------------------------|

e|-----------------------------------7--|
B|----------8--------8-------8----------|
G|-----9--------9-------9-------9-------|
D|--10---10-------10------10------10----|
A|--------------------------------------|
E|--------------------------------------|

CHORUS

BRIDGE

e-|---------------------------------------------------------|
B-|---------------------------------------------------------|
G-|--555555555555---99999999999-----------------------------|
D-|--555555555555---99999999999----333333333333--77777-5555-|
A-|--333333333333---77777777777----333333333333--77777-5555-|
E-|--------------------------------111111111111--55555-3333-|


SOLO:
 THE SOLO IS PLAYED WITH LOTS OF DISTORTION AND FEEDBACK!!!
e-|----------------------------------------------|
B-|----------------------------------------------|
G-|----------------------------------------------|
D-|----------------------------------------------|
A-|--7-7-7b--------5-5-5---------5-5-5h7---b8r7--|
E-|----------------------------------------------|





Comments


Popular Powderfinger tabs & chords
Don't Wanna Be Left Out 1 Bass Tabs
Like A Dog 1 Bass Tabs
Love Your Way 1 Drum Tabs
Hurried Bloom Tabs
On My Mind 4 Tabs
These Days 3 Tabs
Thrillology Intro Tabs
Wishing On The Same Moon Tabs
Head Up In The Clouds Ukulele
My Happiness Ukulele


Song lyrics



↑ Back to top | Tablatures and chords are parodies/interpretations of the original songs. You may use it for private study, scholarship, research or language learning purposes only
© 2014 AZChords.com Contact us | Privacy policy | DMCA | Add/correct tabs | Request tabs | Top 50 tabs