» » »

Powderfinger, Sunsets Tabs (ver.1)

Artists:  A B C D E F G H I J K L M N O P Q R S T U V W X Y Z # 

Sunsets Tabs (ver.1)

Powderfinger Tabs
Rating:
0/5 (0 votes)
Sunsets lessons Tabs too difficult? Try these video lessons and learn fast
                POWDERFINGER
SUNSETS
VULTURE STREET
BY RYAN

Yeah I finally tabbed out this song!!!! Your all welcome :)
If you get confused about the set out, dont worry, its all in order with
both guitars tabbed out!!!

NOTATION
b - bend
r - release
h - hammer on
p - pull off
/ - slide up
\ - slide down

|------------|
|    INTRO   |
|------------|
GUITAR ONE
e |-----------------0----------|----2--2---------------|
B |-----------------0-------3--|----3--3---------------|
G |--2--2--2--2--2--1-------0--|----2--2---------------|
D |--2--2--2--2--2--2---0---0--|----0--0---------------|
A |--0--0--0--0--0--2---0---x--|----0--0---------------|
E |-----------------0--(0)--3--|-----------------------| 
GUITAR TWO
e |----------------------------|-----------------------|
B |----------------------------|-----------------------|
G |----------------------------|-----------------------|
D |--11-11-11-11-11-9---7---9--|----7--7-----/9---7----|
A |----------------------------|-----------9--------9--|
E |----------------------------|-----------------------|

GUITAR ONE
e |-----------------0----------|----2--2---------------|
B |-----------------0-------3--|----3--3---------------|
G |--2--2--2--2--2--1-------0--|----2--2---------------|
D |--2--2--2--2--2--2---0---0--|----0--0---------------|
A |--0--0--0--0--0--2---0---x--|----0--0---------------|
E |-----------------0--(0)--3--|-----------------------| 
GUITAR TWO
e |----------------------------|-----------------------|
B |----------------------------|-----------------------|
G |----------------------------|-----------------------|
D |--11-11-11-11-11-9---7---9--|----7--7---9b11r9-7----|
A |----------------------------|--------------------9--|
E |----------------------------|-----------------------|

GUITAR ONE
e |-----------------0----------|----2--2---------------|
B |-----------------0-------3--|----3--3---------------|
G |--2--2--2--2--2--1-------0--|----2--2---------------|
D |--2--2--2--2--2--2---0---0--|----0--0---------------|
A |--0--0--0--0--0--2---0---x--|----0--0---------------|
E |-----------------0--(0)--3--|-----------------------| 
GUITAR TWO
e |----------------------------|-----------------------|
B |----------------------------|-----------------------|
G |------------------------9b11|9b11r9-----------------|
D |-----7-7-7-9b11-9p7--7------|-----------------------|
A |--7h9---9----------9--------|-----------------------|
E |----------------------------|-----------------------|

GUITAR ONE
e |-----------------0----------|----2--2------------------2--------------|
B |-----------------0-------3--|----3--3------------------3--------------|
G |--2--2--2--2--2--1-------0--|----2--2------------------2--------------|
D |--2--2--2--2--2--2---0---0--|----0--0------------------0--------------|
A |--0--0--0--0--0--2---0---x--|----0--0------------------0--------------|
E |-----------------0--(0)--3--|-----------------------------------------| 
GUITAR TWO
e |----------------------------|-----------------------------------------|
B |----------------------------|-----------------------------------------|
G |----------------------------|--------------------7-7/9--------7-7/9---|
D |--11-11-11-11-11-9---7---9--|----7--7------9-7----------7h9p7---------|
A |----------------------------|------------------9-------------9--------|
E |----------------------------|-----------------------------------------|

 --------------
| VERSE CHORDS |
 --------------
A  E  G  D

|-------------------|
| PRE-CHORUS/CHORUS |
|-------------------|

Maybe I should drop by...
e |-----------------0----------|----2--2---------------|
B |-----------------0-------3--|----3--3---------------|
G |--2--2--2--2--2--1-------0--|----2--2---------2h4p2-|
D |--2--2--2--2--2--2---0---0--|----0--0------2h4------|
A |--0--0--0--0--0--2---0---x--|----0--0---2h4---------|
E |-----------------0--(0)--3--|-----------------------| 

e |-----------------0----------|----2--2---------------|
B |-----------------0-------3--|----3--3---------------|
G |--2--2--2--2--2--1-------0--|----2--2---------------|
D |--2--2--2--2--2--2---0---0--|----0--0---------------| 
A |--0--0--0--0--0--2---0---x--|----0--0---2p0-----0---|
E |-----------------0--(0)--3--|---------------2p0---2-| 

e |-----------------0----------|----2--2---------------|
B |-----------------0-------3--|----3--3---------------|
G |--2--2--2--2--2--1-------0--|----2--2---------------|
D |--2--2--2--2--2--2---0---0--|----0--0---------------|
A |--0--0--0--0--0--2---0---x--|----0--0---------------|
E |-----------------0--(0)--3--|-----------------------| 

     E                              F#m    D               D     Dsus4   D
e |--0------0------0------0----|----2------2-----------|---2----2h3-3---3p2--|
B |--0------0------0------0----|----2------3-----------|---3----3---3---3----|
G |--1------1------1------1----|----2------2-----------|---2----2---2---2----|
D |--2------2------2------2----|----4------0-----------|---0----0---0---0----|
A |--2------2------2------2----|----4------0-----------|---0----0---0---0----|
E |--0------0------0------0----|----2------------------|---------------------|

with guitar 2
e |-------------------------------|
B |-------------------------------|
G |-----6b7r6\4-4----4b5r4\2--2---|
D |-------------------------------|
A |-------------------------------|
E |-------------------------------|
|----------|
| END PART |
|----------|
e |--0------0------0------0----|----2------2-----------|---2--------------|
B |--0------0------0------0----|----2------3-----------|---3--------------|
G |--1------1------1------1----|----2------2-----------|---2--------------|
D |--2------2------2------2----|----4------0-----------|---0--------------|
A |--2------2------2------2----|----4------0-----------|---0--------------|
E |--0------0------0------0----|----2------------------|------------------|
            
Submit corrections

comments powered by Disqus
↑ Back to top | Powderfinger Tabs for Sunsets. Lyrics for acoustic guitar and electric guitar. Tablatures and chords are parodies/interpretations of the original songs. You may use it for private study, scholarship, research or language learning purposes only