» » »

My Happiness Tabs (ver.2)

Artists:  A B C D E F G H I J K L M N O P Q R S T U V W X Y Z # 

My Happiness Tabs (ver.2)

Powderfinger
Rating:
4/5 (5 votes)

Hard to play? Try these video lessons and learn fast.
                #This OLGA file is the author's own work and represents their interpretation  #
#research. Remember to view this file in Courier, or some other monospaced    #




My Happiness - Powderfinger
============   ============

of the album "Odyssey Number 5"


This is the first single of the album (DAH!)

Intro
e-|-------------------------------|
B-|-------------------------------|
G-|----5-7-9----5-----7-9----5----|
D-|--7--------7------------7------|
A-|-------------------------------|
E-|-------------------------------|

Verse
e-|-------------------------------|
B-|-------------------------------|
G-|----5-7-9----5-----7-9----5----|
D-|--7--------7------------7------|
A-|-------------------------------|
E-|-------------------------------|

Prechorus
e-|----------------------------------------------------------|
B-|----------------------------------------------------------|
G-|--14-----12-----9------14-----12-----14-----14-----12\----|
D-|----------------------------------------------------------|
A-|----------------------------------------------------------|
E-|----------------------------------------------------------|

There is no lead through the chorus

sort of Bridge part (very approx.)
e-|----------------------------|
B-|--1--3---1--3---1--3---5--3-|
G-|----------------------------|
D-|----------------------------|
A-|----------------------------|
E-|----------------------------|

solo
e-|-----------------------------------------------------|
B-|-----------------------------------------------------|
G-|---5-7-9----5----7-9----5---5-7-9----5----7-9---5----|
D-|-7--------7-----------7---7--------7----------7------|
A-|-----------------------------------------------------|
E-|-----------------------------------------------------|

e-|-----------------------------------------------------------|
B-|-----------------------------------------------------------|
G-|---14---9---14---9---12-12-12--14---9---14---9---12-12-12--|
D-|-----------------------------------------------------------|
A-|-----------------------------------------------------------|
E-|-----------------------------------------------------------|

thats about it!, if ANYONE is kind enough to tell me the
            
Hard to play? Try these video lessons and learn fast. | Correct




comments powered by Disqus
↑ Back to top | Tablatures and chords are parodies/interpretations of the original songs. You may use it for private study, scholarship, research or language learning purposes only