» » »

Powderfinger, My Happiness Bass tabs (ver.1)

Artists:  A B C D E F G H I J K L M N O P Q R S T U V W X Y Z # 

My Happiness Bass tabs (ver.1)

Powderfinger Tabs
 Rating:
4/5 (4 votes)
My Happiness lessons Tabs too difficult? Try these video lessons and learn fast
1
                Standard Tuning E-A-D-G

I've included timing for each part of the song. It's important to listen to the rhythm 
the bass as it changes alot during the song. Have fun!

Verse 1 {0.59} (Bass Comes In At The end of the 3rd line of the pre-chorus):
G |-----------------|           |-----------------|
D |-----------------|           |-----------------|
A |-----------------| x 2 then  |-----------------|
E |-3-3-3-3-3-3-3-3-|           |-1-1-1-1---------|

Chorus {1.06} (Timing of the notes is odd, so listen carefully):
G |---------------------------------|           |---------------------------------------------|
D |---------------------------------|           |---------------------------------------------|
A |-3-3-3-0-------------------------| x 3 then  |-3--3--3--0----------------------------------|
E |---------3-3-3--1-1-1-0--1-1-1---|           |-------------3-3-3-3-3-3-3-3-3-3-3-3-1-1-1-1-|


Verse 2 {1.29}:
G |---------------------------------------|
D |---------------------------------------|
A |-/8-8-8-8--3-3-3-3-/8-8-8-8--3-3-3-3---| x 6
E |---------------------------------------|

Pre-chorus 2 {2.03}:
G |--------------------------------------------------|
D |------------------------------7-------------------|
A |---------------------7----9-----------------------|
E |-0--------------------------------5-5-5-5-5-5-5-5-|

G |-----------------------------------------------------------------|
D |-----------------------------------------------------------------|
A |-7-7-7-7-7-7-7-7-----------------7-7-7-7-7-7-7-7-----------------|
E |-----------------5-5-5-5-5-5-5-5-----------------3-3-3-3-3-3-3-3-|

G |-------------------------|
D |-------------------------|
A |-------------------------|
E |-3-3-3-3-3-3-3-3-1-1-1-1-|


Chorus {2.24} : (Timing of the notes is odd, so listen carefully)
G |---------------------------------|           |---------------------------------------------|
D |---------------------------------|           |---------------------------------------------|
A |-3-3-3-0-------------------------| x 3 then  |-3--3--3--0----------------------------------|
E |---------3-3-3--1-1-1-0--1-1-1---|           |-------------3-3-3-3-3-3-3-3-3-3-3-3-1-1-1-1-|


Bridge {2.45}:
G |---------------------------------|           |-------------------------------------------------|
D |---------------------------------|           |-------------------------------------------------|
A |-8-8-8-8-3-3-3-3-----------------| x 3 then  |-8-8-8-8-3-3-3-3---------------------------------|
E |-----------------3-3-3-3-1-1-1-1-|           |-----------------3-3-3-3-3-3-3-3-3-3-3-3-3-3-3-3-|


Guitar Solo {3.10}:
G |---------------------------------------|
D |---------------------------------------|
A |-/8-8-8-8--3-3-3-3-/8-8-8-8--3-3-3-3---| x 3
E |---------------------------------------|

G |---------------------------------------------------------|
D |---------------------------------------------------------|
A |-10-10-10-10-10-10-10-10-10-10-10-10-10-10-10-10-8-8-8-8-|
E |---------------------------------------------------------|


Chorus {3.39}: (Timing of the notes is odd, so listen carefully)
G |---------------------------------|           |---------------------------------------------|
D |---------------------------------|           |---------------------------------------------|
A |-3-3-3-0-------------------------| x 3 then  |-3--3--3--0----------------------------------|
E |---------3-3-3--1-1-1-0--1-1-1---|           |-------------3-3-3-3-3-3-3-3-3-3-3-3-3-3-3-3-|


Outro Part 1 {4.00}:
G |---------------------------------|           |-----------------------------------------|
D |---------------------------------|           |-----------------------------------------|
A |-8-8-8-8-3-3-3-3-----------------| x 1 then  |-8-8-8-8-3-3-3-3-------------------------|
E |-----------------3-3-3-3-1-1-1-1-|           |-----------------3-3-3-3-1-1-1-1-1-1-1-1-|

Outro Part 2 {4.12}:
G |---------------------------------------------------------|
D |---------------------------------------------------------|
A |-3-3-3-3-------------------------3-3-3-3-----------------|
E |---------3-3-3-3-1-1-1-1-1-1-1-1---------3-3-3-3-1-1-1-1-|

Outro Part 3 {4.22}:
G |-------------------------------------------------------------|
D |-------------------------------------------------------------|
A |-/8-8-8-8-3-3-3-3-/10-10-10-10---------/8-8-8-8-3-3-3-3------|
E |-------------------------------1-1-1-1------------------3~~~-|
            
Submit corrections

comments powered by Disqus
↑ Back to top | Powderfinger Bass for My Happiness. Lyrics for acoustic guitar and electric guitar. 1 Tablatures and chords are parodies/interpretations of the original songs. You may use it for private study, scholarship, research or language learning purposes only