» » »

Powderfinger, Burn Your Name Chords (ver.1)

Artists:  A B C D E F G H I J K L M N O P Q R S T U V W X Y Z # 

Burn Your Name Chords (ver.1)

Powderfinger Tabs
 Rating:
4.5/5 (8 votes)
Burn Your Name lessons Tabs too difficult? Try these video lessons and learn fast
                


Intro:

e|-------------------5----------5-------------------------------------------------------|
B|------5-------6-----8-6-5------8-6-5--------------------------------------------------|
G|-----5-5-----7-7-----------5----------5-----------------------------------------------|
D|----5---5---7---7---------------------------------------------------------------------|
A|---3-------5--------------------------------------------------------------------------|
E|--------------------------------------------------------------------------------------|

Ian plays this during verse:
e|--------------------------------------|
B|--------------------------------------|
G|---5-5h7p5-7--5h7p5-7/9--7h9p7-9/10---|
D|--------------------------------------|
A|--------------------------------------|
E|--------------------------------------|

C  -  Dm  -  C   -  F

Verse:
      C                Dm       C       F
I was stumbling 'round blind
       C                Dm      C       F
Like a wreck I came to you

      C                     Dm
Gonna burn your name right across the sky
        C                     F
So i'll never forget what the feeling's like

Chorus:
       C            G
I want every single soul to know

       Am                     F
that i love you for what you are

     C                    G
So i sound the bells that praise

              Am          F
your precious heart

Outro:

      C             G              Am                
         C(end)
Gonna Buuuuuuuurn   Youuuuuuuur   Naaaaaaaaaaame
            
Submit corrections

comments powered by Disqus
↑ Back to top | Powderfinger Chords for Burn Your Name. Lyrics for acoustic guitar and electric guitar. Tablatures and chords are parodies/interpretations of the original songs. You may use it for private study, scholarship, research or language learning purposes only