» » »

Powderfinger, Burn Your Name Bass tabs (ver.1)

Artists:  A B C D E F G H I J K L M N O P Q R S T U V W X Y Z # 

Burn Your Name Bass tabs (ver.1)

Powderfinger Tabs
Rating:
0/5 (0 votes)
Burn Your Name lessons Tabs too difficult? Try these video lessons and learn fast
                Intro/Verse 1 (x8)
|-----|||----------------------------------------------------------------||
|-----|||10--10------10--10--10------10--10--10------10--10--10------10--||
|11h12|||-------11h12--12-------11h12--12-------11h12--12-------11h12--12||
|-----|||----------------------------------------------------------------||

Pre Chorus
|---------------------------------------|
|---------------------------------------|
|3--3----5--5-5357--7-7578--8/10-121012-|
|-----545-------------------------------|

 ---------------------------------------------------------------|
 10--10-10--1012--12-12101214--14-141214-15-15-15-15-15-15-15-15|
 ---------12----------------------------------------------------|
 ---------------------------------------------------------------|

Chorus
|----------------------------------------------------------------|
|----------------------------------------------------------------|
|3-3-3-3-3-3-3---------------------------------------------------|
|--------------5-3-3-1-3-3-3-3-0-5-5-3-5-5-5-5-3-1-1-1-1-1-1-1-3-|

 ------------------------------------------------------------------|
 ----------------------------------------------------------------9~|
 3-3-3-3-3-3-3-----------------------------------------------------|
 --------------5-3-3-1-3-3-3-3-0-5-5-3-5-5-5-5-3-1-1-1-1-1-1-1-1---|

Verse2 (x2)
|---------||----------------------------------------------------------------|
|-----10--||10--10------10--10--10------10--10--10------10--10--10------10--|
|11h12--12||-------11h12--12-------11h12--12-------11h12--12-------11h12--12|
|---------||----------------------------------------------------------------|

Pre Chorus
|---------------------------------------|
|---------------------------------------|
|3--3----5--5-5357--7-7578--8/10-121012-|
|-----545-------------------------------|

 --------------------------------------------------------------------------|
 10---10-10-10-10-12---12-12-12-12-14---14-14-14-14-15-15-15-15-15-15-15-15|
 --------------------------------------------------------------------------|
 --------------------------------------------------------------------------|

Chorus
|----------------------------------------------------------------|
|----------------------------------------------------------------|
|3-3-3-3-3-3-3---------------------------------------------------|
|--------------5-3-3-1-3-3-3-3-0-5-5-3-5-5-5-5-3-1-1-1-1-1-1-1-3-|

 ----------------------------------------------------------------|
 ----------------------------------------------------------------|
 3-3-3-3-3-3-3---------------------------------------------------|
 --------------5-3-3-1-3-3-3-3-0-5-5-3-5-5-5-5-3-1-1-1-1-1-1-1-1-|

------------------------------------------------------------------------------|
------------------------------------------------------------------------------|
3-3---3-3-5-7-8-10-10-8-10-10-8-10-11-12-12-10-12-12-12-12-10-8-8-8-8-8-8-8-8-|
----5-------------------------------------------------------------------------|

------------------------------------------------------------------------------|
------------------------------------------------------------------------------|
3-----3---5-7-8-10-----10-----10-8-10-12-----12---12-12/----------------------|
--------------------------------------------------------1-1-1-1-1-1-1-1-1-1-1-|

-------------|
-------------|
-----------3~|
-1-1-1-1-1---|

Interlude, no bass.

Chorus
|----------------------------------------------------------------|
|----------------------------------------------------------------|
|3-3-3-3-3-3-3---------------------------------------------------|
|--------------5-3-3-1-3-3-3-3-0-5-5-3-5-5-5-5-3-1-1-1-1-1-1-1-3-|

 ----------------------------------------------------------------|
 ----------------------------------------------------------------|
 3-3---3-3-3-3---------------------------------------------------|
 ----5---------5-3-3-1-3-3-3-3-0-5-5-3-5-5-5-5-3-1-1-1-1-1-1-1-1-|

------------------------------------------------------------------------------|
------------------------------------------------------------------------------|
3-3---3-3-5-7-8-10-10-8-10-10-8-10-11-12-12-10-12-12-12-12-10-8-8-8-8-8-8-8-8-|
----5-------------------------------------------------------------------------|

-----------------------------------------------------------------------|
-----------------------------------------------------------------------|
3-----3---5-7-8-10-----10-----10-8-10-12-----12---12-12/8-8-8-8-8-8-8-8|
-----------------------------------------------------------------------|

Ending
|-------------------------------------------------------------------|
|-------------------------------------------------------------------|
|3--3/15-15-15-15\--------------------------------------------------|
|-----------------3--3/15-15-15-15\5--5/17-17-17-17\1-1-1-1-1-1-1-1-|

-----------------------------------------------------------------------|
-----------------------------------------------------------------------|
3--3/15-15-15-15\----------------------------------------------------3~|
-----------------3--3/15-15-15-15\5--5/17-17-17-17\1--1--1--1--1--1----|
            
Submit corrections

comments powered by Disqus
↑ Back to top | Powderfinger Bass for Burn Your Name. Lyrics for acoustic guitar and electric guitar. Tablatures and chords are parodies/interpretations of the original songs. You may use it for private study, scholarship, research or language learning purposes only