» » »

Demon Of The Fall Tabs (ver.3)

Artists:  A B C D E F G H I J K L M N O P Q R S T U V W X Y Z # 

Demon Of The Fall Tabs (ver.3)

Opeth
Rating:
0/5 (0 votes)

Hard to play? Try these video lessons and learn fast.
                Gtr.3 - At ~5.39, this guitar will enter and play just
after Gtr.1 (listen to the song and you'll get it.
|-------------------------|-------------------------|
|*------------------------|------------------------*|
|-------------------------|-------------------------|
|--------------s7--5--0>--|----------------5--7-----|
|*------------------------|------------s8----------*|
|-------------------------|-------------------------|

|-------------------------|-------------------------|
|*------------------------|------------------------*|
|-------------(4)5--------|-------------------------|
|-------------------5--7>-|------------*5p3s2--------|
|*------------------------|------------------------*|
|-------------------------|-------------------------|
                           *The second time (to outro), 
                            Gtr1&3 plays this together
Outro
Gtr.3 (acoustic)
|-------------------------|-------------------------|
|*------------------------|------------------------*|
|-------------------------|-------------------------|
|-----7-----7----10----10-|-----5-----5-----5-----5-|
|*--5-----5-----8-----8---|---3-----3-----5-----5--*|
|-5-----5-----8-----8-----|-3-----3-----0-----0-----|

Gtr.4 (acoustic)
|-------------------------|-------------------------|
|*------------------------|------------------------*|
|-------------------------|-------------------------|
|----s7--5--0>-------------|------5--7>-------------|
|*------------------------|---s8-------------------*|
|-------------------------|-------------------------|

|-------------------------|-------------------------|
|*------------------------|------------------------*|
|----(4*)5----------------|-------------------------|
|-----------5--7>---------|--5p3s2------------------|
|*------------------------|------------------------*|
|-------------------------|-------------------------|

Gtr.5
|-------------------------|-------------------------|
|*---s10--8----------------|-------8--10-----------*|
|-----------7-------------|---s10-------------------|
|-------------------------|-------------------------|
|*------------------------|------------------------*|
|-------------------------|-------------------------|

|----8--------------------|-------------------------|
|*------8--10-------------|---8---6--5-------------*|
|-------------------------|-------------------------|
|-------------------------|-------------------------|
|*------------------------|------------------------*|
|-------------------------|-------------------------|
            
Hard to play? Try these video lessons and learn fast. | Correct




comments powered by Disqus
↑ Back to top | Tablatures and chords are parodies/interpretations of the original songs. You may use it for private study, scholarship, research or language learning purposes only