>
 >
Benighted

Benighted Guitar Tabs

Opeth - Benighted chords, tabs, tablatures, lyrics

Guitar lessons | Add/correct | Request | Top 50 tabs Artists:  A B C D E F G H I J K L M N O P Q R S T U V W X Y Z 0-9

Benighted Guitar Tabs – Opeth

CD, Sheet music, Poster

Do you like Benighted? Share with your friends now
TabsTabs v2Tabs v3
Opeth - Benighted

[Riff A]  
|------5------3------2------3------0------------------------------------|
|--------3------3------0------0------0-----3-----s5------0--------------|
|----------0------0------0------0------------0------0------0---2--------|
|------------------------------------------------------------------2----| x4
|--------------------------------------0-------0------0------0-------0--|
|--0--------------------------------------------------------------------|

|-------------------2---------3p2----------------0----------------------|
|--------0------------0-------0---3s5--------------------0--------------|
|------2----2-----------2-------------4s2-0------0-------0--------------|
|----1--------1-----------1-------------------4------2-2----------------|
|--2------------2------------------------------------------0h2----------|
|-----------------------------0-------------0---------------------------|


[Riff B]
|----------------------------------------0-----------------------|
|--------3-------------------------3-----0-----------0-----------|
|------0----0---------0------------2-----0--s4---0---0-----------|
|----2--------2-----2---2-----0----0--------s5---2s4-2-----------| x4
|--1------------0--------------------------------------0----2----|
|-------------------------3-----0--2p0-0-----0---------------h3--|


[bridge]  
|--------------0h2-----3------|
|----------0-------0-------5--|
|------------0-0h2--s4---4----|
|--------2--------------------|
|----0h2----------------------|
|--0--------------------------|


[Riff C] 
|-----------------------0--------------------------------------0------------|
|------------0---0--------0----------------------0---0-----------0----------|
|----------0---0-----s7------(0)-(0)-----------0---0-------0----------------|
|--------4----------4------------------------4----------4--4s5-------0---0--|x2
|----0h2--------------------3---2--------0h2-----------------------3---2----|
|--0-----------------------------------0------------------------------------|

|--------------------------0------------------------------------------------|
|------------0---0-----------0----------------------------------------------|
|----------0---0-------0---------------------2------0------0------0---------|
|--------4----------4--4s5-------0---0-----2------4------4------4-----------|
|----0h2-----------------------3---2-----0------2------3------5-------------|
|--0-----------------------------------------------------------------0------|


[Riff D]
|----------------5--------------------------------------|
|--------------3---3--------------------5---------------|
|------------0-------0-------------4---------0----------|
|--------2s4-----------4------4-------------------------|
|--0---0-----------------------------0----3----3---3-2--|
|--------------------------0----3-----------------------|

|----------------5--------------------------------------|
|--------------3---3------------------------------------|
|------------0-------0------------------4----4----------|
|--------2s4-----------4------4----4--------------------|
|--0---0-----------------------------0----3----3---3-2--|
|--------------------------0----3-----------------------|


[repeat Riff C]
|-----------------------0--------------------------------------0------------|
|------------0---0--------0----------------------0---0-----------0----------|
|----------0---0-----s7------(0)-(0)-----------0---0-------0----------------|
|--------4----------4------------------------4----------4--4s5-------0---0--|
|----0h2--------------------3---2--------0h2-----------------------3---2----|
|--0-----------------------------------0------------------------------------|

|--------------------------0------------------------------------------------|
|------------0---0-----------0----------------------------------------------|
|----------0---0-------0---------------------2------0------0------0---------|
|--------4----------4--4s5-------0---0-----2------4------4------4-----------|
|----0h2-----------------------3---2-----0------2------3------5-------------|
|--0-----------------------------------------------------------------0------|


[repeat Riff D]  
|----------------5--------------------------------------|
|--------------3---3--------------------5---------------|
|------------0-------0-------------4---------0----------|
|--------2s4-----------4------4-------------------------|
|--0---0-----------------------------0----3----3---3-2--|
|--------------------------0----3-----------------------|

|----------------5--------------------------------------|
|--------------3---3------------------------------------|
|------------0-------0------------------4----4----------|
|--------2s4-----------4------4----4--------------------|
|--0---0-----------------------------0----3----3---3-2--|
|--------------------------0----3-----------------------|


[Fill]
|--------------*-2h3-2---2-----2-3-5--|
|----------0-----------5---4-5--------|
|--------0----------------------------|
|------2------------------------------|
|----2--------------------------------|
|--0----------------------------------|


[Riff E]  
|--7------5------3------------------------------------|
|----0------0------0----1-------1-------1------1------|
|------0------0------0----2-------2-------2------0----|
|---------------------------2-------2-------2------2--|
|---------3------2------0-----0-------0--------3------|
|--0--------------------------------------------------|

|-----------------------------------------------------|
|-----------------------------------------------------|
|--0------2------4--------4--------4--------4---------|
|----0------0------4--------4--------4--------4-------|
|--------------------2--------2--------2--------2-----|
|--3---3--2---2--0-----0--------0--------0--------0---|

|------------0-2-3--|---------------------7p0---------0------|
|----------0--------|------10---7-8-----------0---------0----|
|--------0----------|-----------------7s5--------------------|
|------2------------|--7s9------------------------7s9-----7--|
|--0h2--------------|----------------------------------------|
|-------------------|----------------------------------------|

[Solo]
|------------3-5-5h6--5h6--5----------------------------------------|
|--3s5-----5-----------------8-5---8-7-7s10-8-7---------------------|
|--2s4p0----------------------------------------9-7-----------------|
|----------------------------------------------------7--4-s5--------|
|-------------------------------------------------------------------|
|-------------------------------------------------------------------|

|-----15-14-11-----------------------------12-----------------------|
|---x----------12------------------------------12--13--10-----------|
|--x--------------12-11-9-11-s12-s9-s9-7-------------------11s9s11--|
|-------------------------------------------------------------------|
|-------------------------------------------------------------------|
|-------------------------------------------------------------------|

|-------------------------------------------------------------------|
|--------------------------------------s10----12------10------------|
|--9-----7-9-------------------9---7s9-----11----11-9----9s7--------|
|------------9-8-7s5---------9---9----------------------------------|
|--------------------7---5s7----------------------------------------|
|-------------------------------------------------------------------|
                                                                     
[Fill]
|-------------------------------------------------------------------|-------|
|-----------------h8------------------------------------------------|-------|
|--------7--7---7-h9--7-----7h9--7h9-----7---7---------9--7-9-------|--4s5--|
|--7s9---9--9---9-h9----9---9-9--9-9-----9---9-7--s5----------------|-------|
|----------------------------------------------------7--------------|-------|
|-------------------------------------------------------------------|-------|


[repeat Riff D]  
|----------------5--------------------------------------|
|--------------3---3--------------------5---------------|
|------------0-------0-------------4---------0----------|
|--------2s4-----------4------4-------------------------|
|--0---0-----------------------------0----3----3---3-2--|
|--------------------------0----3-----------------------|

|----------------5--------------------------------------|
|--------------3---3------------------------------------|
|------------0-------0------------------4----4----------|
|--------2s4-----------4------4----4--------------------|
|--0---0-----------------------------0----3----3---3-2--|
|--------------------------0----3-----------------------|


[repeat Riff C]
|-----------------------0--------------------------------------0------------|
|------------0---0--------0----------------------0---0-----------0----------|
|----------0---0-----s7------(0)-(0)-----------0---0-------0----------------|
|--------4----------4------------------------4----------4--4s5-------0---0--|x2
|----0h2--------------------3---2--------0h2-----------------------3---2----|
|--0-----------------------------------0------------------------------------|

|--------------------------0------------------------------------------------|
|------------0---0-----------0----------------------------------------------|
|----------0---0-------0---------------------2------0------0------0---------|
|--------4----------4--4s5-------0---0-----2------4------4------4-----------|
|----0h2-----------------------3---2-----0------2------3------5-------------|
|--0-----------------------------------------------------------------0------|


[Riff F]  
|----------0-----------------------------------------------------0--|
|--------0---0---------0---------------------------------------5----|
|---s5---------0-----0-------0-----------0-------0-----------4------|
|----------------5s7-----7s9---5-4h5---4---4---4---5p4--------------|x4
|--0---------------------------------7-------5-----3----------------|
|--------------------------------------------------------1----------|


[Outro]  
|------------2p0--------------------------------------------------|
|----------------0-------------------[12]-------------------------|
|--------0---------2p0-----0---------[12]-------------------------|
|--2s4---2-------------0h2----------------------------------------|
|-----------------------------------------------------------------|
|--0-----0-------------------3p2p0--------------------------------|

Comments, hate mail, death threats to -

~*jinxx*~





Comments


Popular Opeth tabs & chords
Advent Bass Tabs
Credence Bass Tabs
Ending Credits Bass Tabs
Bridge Of Sighs Intro Tabs
Burden Tabs
Deliverence Tabs
Dirge For November Tabs
Ending Creditsbest Tabs
Folklore Intro Tabs
The Lotus Eater Tabs


Song lyrics



↑ Back to top | Tablatures and chords are parodies/interpretations of the original songs. You may use it for private study, scholarship, research or language learning purposes only
© 2014 AZChords.com Contact us | Privacy policy | DMCA | Add/correct tabs | Request tabs | Top 50 tabs