» » »

For Absent Friends Tabs (ver.1)

Artists:  A B C D E F G H I J K L M N O P Q R S T U V W X Y Z # 

For Absent Friends Tabs (ver.1)

Opeth
Rating:
0/5 (0 votes)

Hard to play? Try these video lessons and learn fast.
                
Finish it later...

E|-------------------5-7-8---------------------------------------------------------|
B|------------------------------------------------------------0--------------------|
G|-----2---------------------8---------------2--------------2---2------------------|
D|-0h2---------2\----------7-------------0h2--------------2-------2----------------|
A|-------0---------------6---------------------0-----------------------------------|
E|-----------------------------------------------------3---------------------------|
 |                                                                                 |
E|---7-----------------------------------7-----------------------------------------|
B|---------------------------------------------------------------------------------|
G|-2\------------------------------------------------------------------------------|
D|---------------------------------------------------------------------------------|
A|---------------------------------------------------------------------------------|
E|---------------------------------------------------------------------------------|

E|----------------------0---------------------------------5-7-8--------------------|
B|--------0-----------0---0---------------0-----0----------------------------------|
G|------2---2-------2-------2-----------2---2---------------------8----------------|
D|----2-----------2-----------2-------2-----0h2-------2\--------7------------------|
A|----------------------------------0--------------0----------6--------------------|
E|-2-----------1-----------------3-------------------------------------------------|
 |                                                                                 |
E|---------------------------------------------------------------------------------|
B|---------------------------------------------------------------------------------|
G|---------------------------------------------------------------------------------|
D|---------------------------------------------------------------------------------|
A|---------------------------------------------------------------------------------|
E|---------------------------------------------------------------------------------|

E|---------------------------------------------------------------------------------|
B|---------------------------------------------------------------------------------|
G|-----2---------------------------------------------------------------------------|
D|-0h2-----------------------------------------------------------------------------|
A|-------0-------------------------------------------------------------------------|
E|---------------------------------------------------------------------------------|
 |                                                                                 |
E|---------------------------------------------------------------------------------|
B|---------------------------------------------------------------------------------|
G|---------------------------------------------------------------------------------|
D|---------------------------------------------------------------------------------|
A|---------------------------------------------------------------------------------|
E|---------------------------------------------------------------------------------|

E|---------------------------------------------------------------------------------|
B|---------------------------------------------------------------------------------|
G|---------------------------------------------------------------------------------|
D|---------------------------------------------------------------------------------|
A|---------------------------------------------------------------------------------|
E|---------------------------------------------------------------------------------|
 |                                                                                 |
E|---------------------------------------------------------------------------------|
B|---------------------------------------------------------------------------------|
G|---------------------------------------------------------------------------------|
D|---------------------------------------------------------------------------------|
A|---------------------------------------------------------------------------------|
E|---------------------------------------------------------------------------------|

E|---------------------------------------------------------------------------------|
B|---------------------------------------------------------------------------------|
G|---------------------------------------------------------------------------------|
D|---------------------------------------------------------------------------------|
A|---------------------------------------------------------------------------------|
E|---------------------------------------------------------------------------------|

E|---------------------------------------------------------------------------------|
B|---------------------------------------------------------------------------------|
G|---------------------------------------------------------------------------------|
D|---------------------------------------------------------------------------------|
A|---------------------------------------------------------------------------------|
E|---------------------------------------------------------------------------------|

E|---------------------------------------------------------------------------------|
B|---------------------------------------------------------------------------------|
G|---------------------------------------------------------------------------------|
D|---------------------------------------------------------------------------------|
A|---------------------------------------------------------------------------------|
E|---------------------------------------------------------------------------------|

E|---------------------------------------------------------------------------------|
B|---------------------------------------------------------------------------------|
G|---------------------------------------------------------------------------------|
D|---------------------------------------------------------------------------------|
A|---------------------------------------------------------------------------------|
E|---------------------------------------------------------------------------------|

E|---------------------------------------------------------------------------------|
B|---------------------------------------------------------------------------------|
G|---------------------------------------------------------------------------------|
D|---------------------------------------------------------------------------------|
A|---------------------------------------------------------------------------------|
E|---------------------------------------------------------------------------------|
            
Hard to play? Try these video lessons and learn fast. | Correct




comments powered by Disqus
↑ Back to top | Tablatures and chords are parodies/interpretations of the original songs. You may use it for private study, scholarship, research or language learning purposes only