>
 >
Hope Leaves

Hope Leaves Guitar Tabs

Opeth - Hope Leaves chords, tabs, tablatures, lyrics

Guitar lessons | Add/correct | Request | Top 50 tabs Artists:  A B C D E F G H I J K L M N O P Q R S T U V W X Y Z 0-9

Hope Leaves Guitar Tabs – Opeth

CD, Sheet music, Poster

Do you like Hope Leaves? Share with your friends now
Bass TabsBass Tabs v2TabsTabs v2Tabs v3
Artist - Opeth
Album - ***ation
Song - "Hope Leaves"

Standard Tuning

(#) - Playing this note is optional 

This tab is written in sections, and at the end of the
tab, the order of the "Rhy/Lead Figs" and how many times
each "Rhy/Lead Fig" (Rhythm Figure) is played. Have fun.



Rhy Fig 1
e---------------2-------------------------------2-----------------|
B-----3---2h3-----2h3-2h3-------------3---2h3-----2h3-2h3-----3---|
G---4--(4)----2-------------2---2---4--(4)----2-------------2---2-|
D-----------------------------------------------------------------|
A-2-----------------------0-------------------------------0-------|
E-----------------------------2---3-------------------------------|

Rhy Fig 2
e-----------------2-------2-------|
B-----3---2h3-------3p2-----3p2---|
G---4---4-------------------------|
D---------------------------------|
A---------------------------------|
E-4-----------4-3-------3-------4-|

Rhy Fig 3
e-------------------------------|
B-----3---2h3-------------------|
G---4---4-----------2-------2---|
D-----------------5---5---5---5-|
A-----------------------0-------|
E-4-------------3---------------|

Rhy Fig 4
e-------------0-----------------|-------------------------------|
B-------------------------------|-------------------------------|
G-----4-------------2-----2-----|-----4-------2-----2----2----2-|
D---4---4---------2-----2-------|---4---4---2-----2---2----4----|
A-2-------/7----4-----5-----0---|-2-------4-----5---------------|
E-----------------------------2-|-------------------------------|

Rhy Fig 5
e-------------0-----------------|---------------------------0-----|
B-------------------------------|-------------------------1---1---|
G-----4-------------2-----2-----|-----4-------0-----2---0-------0-|
D---4---4---------2-----2-------|---4---4---0-----2---------------|
A-2-------/7----4-----5-----0---|-2-------------0-----3-----------|
E-----------------------------2-|---------3-----------------------|

Lead Fig 1
e------------------------------------------------------|
B-12~--12-14-15-15/17~--15-14-12--10-12\10-------------|
G------------------------------------------\9-7-9-9/11-|
D------------------------------------------------------|
A------------------------------------------------------|
E------------------------------------------------------|

Rhy Fig 6
e-2-2--------------------------------------|
B-2-2-6------------------------------------|
G-4-4-6---4-2-2-----------6------2-4-6--/7-|
D-4-4-4---4-2-2-0-------7------------------|
A---------2-4-4-5-----0--------0-----------|
E---------------3---5--------5-------------|

Lead Fig 2
e-----------------|
B-----------------|
G-6h7p6-4h6-2-----|
D-------------2h4-|
A-----------------|
E-----------------|

--------------------------------------
Play in this order, x amount of times:

Rhy Fig 1 - 6x 
Rhy Fig 2 - 2x
Rhy Fig 3 - 1x
Rhy Fig 4 - 1x
Rhy Fig 5 - 1x
Rhy Fig 1 - 2x     <- (These two patterns
Lead Fig 6 - 1x    <- played together)
Rhy Fig 1 - 4x
Rhy Fig 2 - 2x
Rhy Fig 3 - 1x
Rhy Fig 4 - 4x
Rhy Fig 6 - 1x
Rhy Fig 1 - 2x     <- (These two patterns played together, the lead pattern comes
Lead Fig 2 - 1x    <- in the second time you play Rhy Fig 1, then Rhy Fig 1 continues)
Rhy Fig 1 - 4x
Rhy Fig 2 - 2x
Rhy Fig 3 - 1x
Rhy Fig 4 - Play until fade out..





Comments


Popular Opeth tabs & chords
Death Whispered A Lullaby Bass Tabs
Patterns In The Ivy Bass Tabs
To Rid The Disease 3 Bass Tabs
April Ethereal Tabs
Benighted Tabs
Demon Of The Fall Tabs
Derelict Herds Tabs
Harvest Tabs
Heir Apparent Intro 1 Tabs
Porcelain Heart 2 Tabs


Song lyrics



↑ Back to top | Tablatures and chords are parodies/interpretations of the original songs. You may use it for private study, scholarship, research or language learning purposes only
© 2014 AZChords.com Contact us | Privacy policy | DMCA | Add/correct tabs | Request tabs | Top 50 tabs