>
 >
Demon Of The Fall 1

Demon Of The Fall 1 Guitar Tabs

Opeth - Demon Of The Fall 1 chords, tabs, tablatures, lyrics

Guitar lessons | Add/correct | Request | Top 50 tabs Artists:  A B C D E F G H I J K L M N O P Q R S T U V W X Y Z 0-9

Demon Of The Fall 1 Guitar Tabs – Opeth

CD, Sheet music, Poster

Do you like Demon Of The Fall 1? Share with your friends now
Bass TabsBass Tabs v2TabsTabs v2Tabs v3
Tuning: D,A,D,G,B,E (Drop D)

Riff 1:
Distorted
(Part 1)
E:--------------------------------------------
B:--------------------------------------------
G:-7-7-7-7-7-7-7-7-7-7-7-7-7-7-7-7-7-7-7-7----
D:-0-0-0-0-0-0-0-0-0-0-0-0-0-0-0-0-0-0-0-0----
A:-5-5-5-5-5-5-5-5-5-5-5-5-5-5-5-5-5-5-5-5----
D:-0-0-0-0-0-7-7-7-7-7-6-6-6-6-6-6-6-6-6-6----

E:--------------------------------------------
B:--------------------------------------------
G:--------------------------------------------
D:--------------------------------------------
A:-----6-3-3h5-5-------------6-6-8-9-8-6------
D:-8p6-----------0-0-0-0-8p6------------------

Distorted
(Part 2)
E:--------------------------------------------
B:--------------------------------------------
G:--------------------------------------------
D:-6-1-1--------------------------------------
A:-6-1-1--------------------------------------
D:-6-1-1--------------------------------------

Riff 2:
Distorted
E:--------------------------------------------
B:--------------------------------------------
G:-14-14-14-14-14\9-9-9-9-9-9/10-10-10-10-10--
D:--0--0--0--0--0-0-0-0-0-0-0--0--0--0--0--0--
A:-12-12-12-12-12\7-7-7-7-7-7/-8--8--8--8--8--
D:--0--0--0--0--0-0-0-0-0-0-0--0--0--0--0--0--

E:--------------------------------------------
B:--------------------------------------------
G:-10-10-10-10-10-10-10-10-10-10-10/14-14-14--
D:--0--0--0--0--0--0--0--0--0--0--0--0--0--0--
A:--8--8--8--8--8--8--8--8--8--8--8/12-12-12--
D:--0--0--0--0--0--0--0--0--0--0--0--0--0--0--

E:--------------------------------------------
B:--------------------------------------------
G:-14-14-14-14-14-14-14-14-14-14-14-14-14-14--
D:--0--0--0--0--0--0--0--0--0--0--0--0--0--0--
A:-12-12-12-12-12-12-12-12-12-12-12-12-12-12--
D:--0--0--0--0--0--0--0--0--0--0--0--0--0--0--

E:--------------------------------------------
B:--------------------------------------------
G:-14-14\7-7-7-7-7-10-10-9-9-9-9-9-9-9/13-13--
D:--0--0-0-0-0-0-0--0--0-0-0-0-0-0-0-0--0--0--
A:-12-12\5-5-5-5-5--8--8-7-7-7-7-7-7-7/11-11--
D:--0--0-0-0-0-0-0--0--0-0-0-0-0-0-0-0--0--0--

E:--------------------------------------------
B:--------------------------------------------
G:-13-13-13-13-12-12-12-12-10-7-7-7-7-7-7/14--
D:--0--0--0--0--0--0--0--0--0-0-0-0-0-0-0--0--
A:-11-11-11-11-10-10-10-10--8-5-5-5-5-5-5/12--
D:--------------------------------------------

Riff 3:
Distorted
E:--------------------------------------------
B:--------------------------------------------
G:-8-8-8-8-8-8\7-7-7-------8-8-8-8-8-8\7-7-7--
D:-8-8-8-8-8-8\7-7-7-------8-8-8-8-8-8\7-7-7--
A:-6-6-6-6-6-6\5-5-5-------6-6-6-6-6-6\5-5-5--
D:-------------------1-1/6--------------------

E:--------------------------------------------
G:--------------------------------------------
B:-7-7-5-----------------2--------------------
D:-7-7-5-5-5-5-5-7-7-5-5-0--------------------
A:-5-5-3-3-3-3-3-5-5-3-3-0--------------------
D:-0-5-3-3-3-3-3-0-5-3-3-0--------------------
	pm.....

Riff 4:
Clean
E:-5-5-5---------------------4-4-4------------
B:-3-3-3---------------------3-3-3------------
G:-2-2-2-------------5/7-----2-2-2------------
D:-0-0-0---------------------0-0-0------------
A:-------------------3/5----------------------
D:-------3p0-0-0-0-0-----0-0-------3p0-0-0-0--

E:-----------3-3-1----------------------------
B:-----------3-3-3---------------------5/6-6--
G:---5/7-----2-2-2-------------5/7-----0-0-0--
D:-----------0-0-0---------------------2/3-3--
A:---3/5-----------------------3/5-----0-0-0--
D:-0-----0-0-------3p0-0-0-0-0-----0-0-0-0-0--

E:--------------------------------------------
B:-6-----8\5-5-5----11-11---------------------
G:-0-----0-0-0-0-----0--0---------------------
D:-3-----5\2-2-2-----8--8---------------------
A:-0-----0-0-0-0-----0--0---------------------
D:-0-0-0-0-0-0-0-0-0-0--0-0-0-----------------

Riff 5:
Distorted
E:-5-5-5---------------------4-4-4------------
B:-3-3-3---------------------3-3-3------------
G:-2-2-2-------------5/7-----2-2-2------------
D:-0-0-0---------------------0-0-0------------
A:-------------------3/5----------------------
D:-------3p0-0-0-0-0-----0-0-------3p0-0-0----

E:-------------3-3-1--------------------------
B:-------------3-3-3--------------------------
G:-----5/7-----2-2-2-------------5/7-----5/10-
D:-------------0-0-0---------------------0--0-
A:-----3/5-----------------------3/5-----3--8-
D:-0-0-----0-0-------3p0-0-0-0-0-----0-0-0--0-

E:---------------------------------------------
B:---------------------------------------------
G:-10-10----12/10-9/8-8-8-8-8-----5/10-10-10---
D:--0--0-----0----0-0-0-0-0-0-----0--0--0--0---
A:--8--8----10/8--7/6-6-6-6-6-----3/-8--8--8---
D:--0--0-0-0-0-0--0-0-0-0-0-0-0-0-0--0--0--0---

E:---------------------------------------------
B:---------------------------------------------
G:---12/9-9\8/15-15-15-15-15-15----------------
D:----0-0-0-0--0--0--0--0--0--0----------------
A:---10-7-7\6/13-13-13-13-13-13----------------
D:-0--0-0-0-0--0--0--0--0--0--0-0--------------

Riff 6:
Clean
(Part 1)       
E:---------------------------------------------
B:---------------------------------------------
G:---------------------------------------------
D:---4-------4---4-------4---------------------
A:-0---0---0---0---0---0-----------------------
D:-------4-----------4-------------------------

Distorted
(Part 2)
E:---------------------------------------------
B:---------------------------------------------
G:-6/7-----------------------------------------
D:-0-0-----------------------------------------
A:-4/5-----------------------------------------
D:-----6---------------------------------------

Riff 7:
Distorted
(Part 1)
E:---------------------------------------------
B:---------------------------------------------
G:-------------7-7-7-7-7-7\6-6-6-6-6-5-5-5-5-5-
D:-------------0-0-0-0-0-0-0-0-0-0-0-0-0-0-0-0-
A:---0-0-0-0-0-5-5-5-5-5-5\4-4-4-4-4-0-0-0-0-0-
D:-7-0-0-0-0-0-----------------------0-0-0-0-0-

Distorted
(Part 2)
E:---------------------------------------------
B:---------------------------------------------
G:---------------------------------------------
D:---------------10-9-7-6-5--------------------
A:---------5-7-8------------8------------------
D:-7-6-0-7-------------------------------------

Riff 8:
Distorted
(Part 1)
E:---------------------------------------------
B:---------------------------------------------
G:-3-3-3-3-3-3/8-8-8-8-8-8/9-9-9-9-9-9-9-9-9-9-
D:-x-x-x-x-x-x-x-x-x-x-x-x-x-x-x-x-x-x-x-x-x-x-
A:-1-1-1-1-1-1/6-6-6-6-6-6/7-7-7-7-7-7-7-7-7-7-
D:---------------------------------------------

E:---------------------------------------------
B:---------------------------------------------
G:---------------------------------------------
D:-----------5-5-5-5-5-------------------------
A:-3-3-3-3-3-----------------------------------
D:---------------------------------------------

Distorted
(Part 2)
E:---------------------------------------------
B:---------------------------------------------
G:-3-3-3-3-3-3/8-8-8-8-8-8/9-9-9-9-9-9-9-9-9-9-
D:-x-x-x-x-x-x-x-x-x-x-x-x-x-x-x-x-x-x-x-x-x-x-
A:-1-1-1-1-1-1/6-6-6-6-6-6/7-7-7-7-7-7-7-7-7-7-
D:---------------------------------------------

E:---------------------------------------------
B:-9-9-9-9-9-9---------------------------------
G:-7-7-7-7-7-7---------------------------------
D:-6-6-6-6-6-6---------------------------------
A:---------------------------------------------
D:---------------------------------------------

Riff 9:
Clean
(Part 1)
E:-0-----------0-------------------------------
B:---4-------4---4-------4---------------------
G:-----0---0-------0---0-----------------------
D:-------4-----------4-------------------------
A:---------------------------------------------
D:---------------------------------------------

Distorted
(Part 2)
E:---------------------------------------------
B:---------------------------------------------
G:---------------------------------------------
D:---------------------------------------------
A:-5-4---------5-------------------------------
D:-----0-0-2-3---5-6-6-------------------------

Riff 10:
Distorted
E:---------------------------------------------
B:---------------------------------------------
G:-7-7-7-7-7-7-7-7-7-7-14-14-14-14-14\7-7-7-7--
D:-8-8-8-8-8-8-8-8-8-8--0--0--0--0--0-0-0-0-0--
A:-5-5-5-5-5-5-5-5-5-5-12-12-12-12-12\5-5-5-5--
D:-5-5-5-5-5-5-5-5-5-5-------------------------

E:---------------------------------------------
B:---------------------------------------------
G:-7-7/9-9-9-9-9-9-9-9-9-9-9-9-9-9-9-9-9-9-9-9-
D:-0-0-0-0-0-0-0-0-0-0-0-0-0-0-0-0-0-0-0-0-0-0-
A:-5-5/7-7-7-7-7-7-7-7-7-7-7-7-7-7-7-7-7-7-7-7-
D:---------------------------------------------

Riff 11:
Distorted
E:---------------------------------------------
B:---------------------------------------------
G:-7-7-7-7-7-7-7-7-7-7-14-14-14-14-14-14-14-14-
D:-8-8-8-8-8-8-8-8-8-8--0--0--0--0--0--0--0--0-
A:-5-5-5-5-5-5-5-5-5-5-12-12-12-12-12-12-12-12-
D:-5-5-5-5-5-5-5-5-5-5-------------------------

E:---------------------------------------------
B:---------------------------------------------
G:-14-14\9-9-9-9-9-9-9-9-9-9-------------------
D:--0--0-0-0-0-0-0-0-0-0-0-0-------------------
A:-12-12\7-7-7-7-7-7-7-7-7-7-------------------
D:---------------------------------------------

There should be a riff here, I'm working on it.

Riff 13:
Clean
E:---------------------------------------------
B:---------------------------------------------
G:---------------------------------------------
D:-----7-----7-----10-----10-----5-----5-----5-
A:---5-----5-----8------8------3-----3-----5---
D:-5-----5-----8------8------3-----3-----0-----

E:---------------------------------------------
B:---------------------------------------------
G:---------------------------------------------
D:-----5---------------------------------------
A:---5-----------------------------------------
D:-0-------------------------------------------





Comments


Popular Opeth tabs & chords
Death Whispered A Lullaby Bass Tabs
Demon Of The Fall Bass Tabs
Demon Of The Fall 2 Bass Tabs
Moonlapse Vertigo Bass Tabs
Ghost Of Perdition 2 Tabs
Grand Conjuration 3 Tabs
Leper Affinity 1 Tabs
Serenity Painted Death 3 Tabs
The Lotus Eater Tabs
The Twilight Is My Robe 2 Tabs


Song lyrics



↑ Back to top | Tablatures and chords are parodies/interpretations of the original songs. You may use it for private study, scholarship, research or language learning purposes only
© 2014 AZChords.com Contact us | Privacy policy | DMCA | Add/correct tabs | Request tabs | Top 50 tabs