>
 >
Porcelain Heart

Porcelain Heart Guitar Tabs

Opeth - Porcelain Heart chords, tabs, tablatures, lyrics

Guitar lessons | Add/correct | Request | Top 50 tabs Artists:  A B C D E F G H I J K L M N O P Q R S T U V W X Y Z 0-9

Porcelain Heart Guitar Tabs – Opeth

CD, Sheet music, Poster

Do you like Porcelain Heart? Share with your friends now
Bass TabsTabsTabs v2Tabs v3Tabs v4
Opeth

- Porcelain Heart (Watershed 2008)


Hello, maybe it's a bit early to make a tab of this song because the album is not in stores
yet it's only a single! :) but i was just curious
to try finding the right chords because i think this is really good track, and also i think
that some people would enjoy to play it using this tab.
but the notes i think are pretty correct! : )

I created this tab using a Standard D tuning because usually opeth tabs (in D, like 
of the fall, ghost of perdition and others) are in Drop D or Open D tuning and
it's a bit crap changing the tune of the guitar
everytime so i made it playable on a normal D tuning :) !

v= vibrato
h= hammer on
p= pull off
s= slide

Tune: Standard D

D
A
F
C
G
D


tempo: 130 bpm

Main riff  x 3 times

Guitar 1:

-------0--0-----------------------------------------------------------------|
-------0--0-----------------------------------------------------------------|
-------4--4-----------------------------------------------------------------|
--2-------------------------------------------2--1-------------10--------3--|
--2------------------------------------------------------------10--------3--|
--0----------2--3-slide--6--6vibrato----------------2--3--------8--------1--|


Guitar 2:

----------------------------------------------------------------------------|
------------------10--11--11v-------------11-s-14--14--14--------13vibrato--|
--9-----11--12---------------------------9-----------------12---------------|
----------------------------------------------------------------------------|
----------------------------------------------------------------------------|
----------------------------------------------------------------------------|

Guitar 1:

-------0--0-----------------------------------------------------------------|
-------0--0-----------------------------------------------------------------|
-------4--4-----------------------------------------------------5-------10--|
--2-------------------------------------------2--1--------------5-------10--|
--2-------------------------------------------------------------3--------8--|
--0----------2--3-slide--6--6vibrato----------------2--3--------------------|


Guitar 2:

----------------------------------------------------------------------------|
------------------10--11--11v--------------11-s-14--14--14------------------|
--9-----11--12---------------------------9----------------(12)-parkinson----|
-----------------------------------------------------------like vibrato-here|
----------------------------------------------------------------------------|
----------------------------------------------------------------------------|

Acustic interlude

Starts with:

----------------------------------------------------------------------------|
----------------------------------------------------------------------------|
---------------------------0----2-p-0-------------------4-----3-----2-------|
----------------2--------4---4----------4------------4-----4-----4-----4----|
----------------------------------------------------------------------------|
---0------------------0---------------------3--2----------------------------|

Continue with:

----------------------------------------------------------------------------|
----------------------------------------------------------------------------|
---------------------------0----2-p-0-------------------4-----3-----2-------|
---2-s-5-------2---------4---4----------4------------4-----4-----4-----4----|
----------------------------------------------------------------------------|
-----------0----------0---------------------3--2----------------------------|

On 3 time a piano starts playing:

----------------------------------------------------------------------------|
----------------------------------------------------------------------------|
-----------------------------------------------------4-----3-----2----------|
-----------------------------------------------------------------------5----|
----------------------------------------------------------------------------|
----------------------------------------------------------------------------|

ends with:

----------------------------------------------------------------------------|
----------------------------------------------------------------------------|
----------------------------------------------------------------------------|
---2-s-5--------------------------------------------------------------------|
----------------------------------------------------------------------------|
---0------------------------------------------------------------------------|

-repeat Main riff x 3 times


-repeat Acustic interlude but

with a synth effect playing:


-----------------------------------------------------------------------|
-----------------------------------------------------------------------|
---------9 let ring------------------------------slide-----------------|
-----------------------------------------------------------------------|
-----------------------------------------------------------------------|
-----------------------------------------------------------------------|


---------------------------------------------|
---------------------------------------------|
-21-let ring--------------slide----to----9---|
---------------------------------------------|
---------------------------------------------|
---------------------------------------------|
---------------------------------------------|

Chorus:

-guitar 1-

(Fade in, use only fingers don't pick, use pull-off and hammer-on)


----------------------------------------------------------------------------|
-----0---5---7--8--7---5---0----5---7--8--7---5---0----5---7--8--7---5------|
----------------------------------------------------------------------------|
----------------------------------------------------------------------------|
----------------------------------------------------------------------------|
----------------------------------------------------------------------------|


-guitar 2-

(palm muting)

----------------------------------------------------------------------|
----------------------------------------------------------------------|
----------------------------------------------------------------------|
----------------------------------------------------------------------|
----------------------------------------------------------------------|
------2-2-2-0-0-0-3-3-3-3-3-3-3-3-3-3-3-3-3-3-3-3-3-3-5-5-5-3-3-3-----|


-----------------------------------------------------------------------|
-----------------------------------------------------------------------|
-----------------------------------------------------------------------|
-----------------------------------------------------------------------|
-----------------------------------------------------------------------|
-7-7-7-7-7-7-7-7-7-7-7-7-7-7-7-7-7-7-8-8-8-7-7-7--2-2-2-2-2-2-2-2------|

-----------------------------------------------------------------------|
-----------------------------------------------------------------------|
-----------------------------------------------------------------------|
-----------------------------------------------------------------------|
-----------------------------------------------------------------------|
-2-2-2-2-2-2-2-2-2-2-3-3-3-2-2-2-0-0-0-0-0-0-0-0-0-0-0-0-0-0-0-0-0-0---|

-guitar 1-

(Fade in, use only fingers don't pick, use pull-off and hammer-on)

------------------------------------------------------------------------|
-----0---5---7--8--7---5---0----5---7--8--7---5---0----5---7--8--7---5--|
------------------------------------------------------------------------|
------------------------------------------------------------------------|
------------------------------------------------------------------------|
------------------------------------------------------------------------|


-guitar 2-

(this time no palm muting, you have to change gradually from the two parts)

---------------------------------------------------------------------|
---------------------------------------------------------------------|
---------------------------------------------------------------------|
-------------------------------4-----2-----5-------------------------|
-------------------------------4-----2-----5-------------------------|
-------------------------------2-2-2-0-0-0-3-3-3-3-3-3-3-3-----------|


----------------------------------------------------------------------|
----------------------------------------------------------------------|
----------------------------------------------------------------------|
-------------------------7-----5-----9--------------------------------|
-------------------------7-----5-----9--------------------------------|
-----3-3-3-3-3-3-3-3-3-3-5-5-5-3-3-3-7-7-7-7-7-7-7-7-7-7-7-7-7--------|


----------------------------------------------------------------------|
----------------------------------------------------------------------|
----------------------------------------------------------------------|
-----------10----9-----4----------------------------------------------|
-----------10----9-----4----------------------------------------------|
-7-7-7-7-7-8-8-8-7-7-7-2-2-2-2-2-2-2-2-2-2-2--------------------------|


----------------------------------------------------------------------|
----------------------------------------------------------------------|
----------------------------------------------------------------------|
-------------------5-----4-----2--------------------------------------|
-------------------5-----4-----2--------------------------------------|
-----2-2-2-2-2-2-2-3-3-3-2-2-2-0-0-0-0-0-0-0-0-0-0-0-0-0-0-0-0-0-0----|

--repeats--


Akerfledt solo:

(clean guitar with a little distorsion)

---------------------------------------------------------------------|
---------------------------------------------------------------------|
----------------11------------11--12---9-----------(8)---------------|
-------9--------------------------------------------------(9)--------|
---------------------------------------------------------------------|
---------------------------------------------------------------------|


---------------------------------------------------------------------|
---------------------------------------------------------------------|
----------8--9----9-s-11-----------9-h-11--11-h-12-------------------|
----7-h-9------------------------------------------------------------|
---------------------------------------------------------------------|
---------------------------------------------------------------------|

---------------------------------------------------------------------|
--------------10-12-13-----------------------------------------------|
------11-12---------------11-----------------------------------------|
---------------------------------------------------------------------|
---------------------------------------------------------------------|
---------------------------------------------------------------------|


--------------------------11s12--------------------12--14------------|
-12------------------------------------------11s12-------------------|
---------------------------------------------------------------------|
---------------------------------------------------------------------|
---------------------------------------------------------------------|
---------------------------------------------------------------------|

------14-bend to-15----release to 14---12----------------------------|
--------------------------------------------15-----------------------|
-------------------------------------------------14-p-12--11---------|
---------------------------------------------------------------------|
---------------------------------------------------------------------|
---------------------------------------------------------------------|

---------------------------------------------------------------------|
---------------------------------------------------------------------|
----11 bend to 12--release and slide to 8----------------------------|
--9(stopped)------------------------------9------7-h-9-p-7-----------|
--------------------------------------------------------------9-s-10-|
---------------------------------------------------------------------|


Acustic interlude 2

(maybe it's not perfectly accurate...it's really hard to hear but let's try!)

first 2 notes are fast the first time.

capo on 2 fret

-----------|---------------------------------------------------|
-----------|--3-----------0-----------1------------1-----------|
-----2-----|-----2-----------2-----------2---------------------|
-----------|-------------------------------------------2-------|
----0------|---------0------------0-----------0-----------0----|
-----------|---------------------------------------------------|


-------------------------------------------------------|
-3------------0----------------0-----------0-----------|
----2------------2-------------5-----------5-----------|
-----------------------------------7-----------7-------|
---------0-------------0--------------0------------0---|
-------------------------------------------------------|

on 3 and 4 a woodwind instruments or a oboe is playing:

---------------------------------------------------------------------------|
---------------------------------------------------------------------------|
----12--11--14-------------------------------11----------------------------|
-----------------12---14-----14--12--14------------------------------------|
---------------------------------------------------------------------------|
---------------------------------------------------------------------------|


--------------------------------------------------------------------------|
--------------------------------------------------------------------------|
----12------14--12---11----------------------11---------------------------|
---------------------------------14---------------14----12----------------|
--------------------------14----------------------------------------------|
--------------------------------------------------------------------------|


Ends with:

guitar1:

---------1-p-0---------------------------------------------------------5--|
---------3------3-------------1-h-3-p-1------------0-------------------5--|
---------2--------------------2--------------------1-------------------5--|
---------0--------------------2--------------------2---------2---------7--|
---------------------------------------------------2---------2---------0--|
---------------------------------------------------0----------------------|


guitar2:


---------------------------------------------------7--------------------|
---------------------------------------------------0--------------------|
------------------------------------------------------------------------|
------------------------------------------------------------------------|
------------------------------------------------------------------------|
------------------------------------------------------------------------|


Final chorus:

-guitar 1-

(Fade in, use only fingers don't pick, use pull-off and hammer-on)

--------------------------------------------------------------------------|
-----0---5---7--8--7---5---0----5---7--8--7---5---0----5---7--8--7---5----|
--------------------------------------------------------------------------|
--------------------------------------------------------------------------|
--------------------------------------------------------------------------|
--------------------------------------------------------------------------|

-guitar 2- first time


----------------------------------------------------------------|
----------------------------------------------------------------|
----------------------------------------------------------------|
--------------------------4-------2------5----------------------|
--------------------------4-------2------5----------------------|
--------------------------2-------0------3----------------------|


----------------------------------------------------------------|
----------------------------------------------------------------|
----------------------------------------------------------------|
------7-----5----9--------------------------10------9------4----|
------7-----5----9--------------------------10------9------4----|
------5-----3----7---------------------------8------7------2----|


--------------------------------------0-------------------------|
--------------------------------------0---let ring--------------|
--------------------------------------4-------------------------|
----------------5-------4------2--------------------------------|
----------------5-------4------2--------------------------------|
----------------3-------2------0--------------------------------|

-guitar 2- second, third

(palm muting)

---------------------------------------------------------------------|
---------------------------------------------------------------------|
---------------------------------------------------------------------|
---------------------------------------------------------------------|
---------------------------------------------------------------------|
------2-2-2-0-0-0-3-3-3-3-3-3-3-3-3-3-3-3-3-3-3-3-3-3-5-5-5-3-3-3----|


---------------------------------------------------------------------|
---------------------------------------------------------------------|
---------------------------------------------------------------------|
---------------------------------------------------------------------|
---------------------------------------------------------------------|
-7-7-7-7-7-7-7-7-7-7-7-7-7-7-7-7-7-7-8-8-8-7-7-7-2-2-2-2-2-2-2-2-----|

---------------------------------------------------------------------|
---------------------------------------------------------------------|
---------------------------------------------------------------------|
---------------------------------------------------------------------|
---------------------------------------------------------------------|
-2-2-2-2-2-2-2-2-2-2-3-3-3-2-2-2-0-0-0-0-0-0-0-0-0-0-0-0-0-0-0-0-0-0-|

-guitar 3- starts on 3 time (tap the note)

------------------------------------------------------------------------|
------------------------------------------------------------------------|
-----12----------12-----------12----------12---------12----------12-----|
------------------------------------------------------------------------|
------------------------------------------------------------------------|
------------------------------------------------------------------------|

-guitar 2-

(this time no palm muting, you have to change gradually from the two parts)

---------------------------------------------------------------------|
---------------------------------------------------------------------|
---------------------------------------------------------------------|
-------------------------------4------2-----5------------------------|
-------------------------------4------2-----5------------------------|
-------------------------------2-2-2--0-0-0-3-3-3-3-3-3-3-3----------|

----------------------------------------------------------------------|
----------------------------------------------------------------------|
----------------------------------------------------------------------|
--------------------------7-----5-----9-------------------------------|
--------------------------7-----5-----9-------------------------------|
------3-3-3-3-3-3-3-3-3-3-5-5-5-3-3-3-7-7-7-7-7-7-7-7-7-7-7-7-7-------|

----------------------------------------------------------------------|
----------------------------------------------------------------------|
----------------------------------------------------------------------|
-----------10----9-----4----------------------------------------------|
-----------10----9-----4----------------------------------------------|
-7-7-7-7-7-8-8-8-7-7-7-2-2-2-2-2-2-2-2-2-2-2--------------------------|

-----------------------------------------------------------------------|
-----------------------------------------------------------------------|
-----------------------------------------------------------------------|
-----------------------5-----4-----2-----------------------------------|
-----------------------5-----4-----2-----------------------------------|
-----2-2-2-2-2-2-2-3-3-3-2-2-2-0-0-0-0-0-0-0-0-0-0-0-0-0-0-0-0-0-0-----|

--repeats--

-guitar 1-

(Fade OUT, use only fingers don't pick)

----------------------------------------------------------------------------|
-----0---5---7--8--7---5---0----5---7--8--7---5---0----5---7--8--7---5------|
----------------------------------------------------------------------------|
----------------------------------------------------------------------------|
----------------------------------------------------------------------------|
----------------------------------------------------------------------------|

ends with:

-----------------------------------------------------------|
-----0---5---7-h-8-p-7-h-8-p-7-h-8-p-7-h-8-p-7-h-8- ecc... |
-----------------------------------------------------------|
-----------------------------------------------------------|
-----------------------------------------------------------|
-----------------------------------------------------------|

version 1.1
28/04/08





Comments


Popular Opeth tabs & chords
Forest Of October Bass Tabs
The Leper Affinity Bass Tabs
Soldier Of Fortune Chords
Deliverance Live Tabs
Demon Of The Fall Tabs
Grand Conjuration 1 Tabs
Grand Conjuration 3 Tabs
Hope Leaves 2 Tabs
White Cluster Tabs
Ending Credits Ukulele


Song lyrics



↑ Back to top | Tablatures and chords are parodies/interpretations of the original songs. You may use it for private study, scholarship, research or language learning purposes only
© 2014 AZChords.com Contact us | Privacy policy | DMCA | Add/correct tabs | Request tabs | Top 50 tabs