» » »

Demon Of The Fall Tabs (ver.1)

Artists:  A B C D E F G H I J K L M N O P Q R S T U V W X Y Z # 

Demon Of The Fall Tabs (ver.1)

Opeth
Rating:
0/5 (0 votes)

Hard to play? Try these video lessons and learn fast.
                This is just the outro of the song...

AMAZING SONG!! Opeth is one of the greatest bands out there!

but anyways.. I couldnt find this little section of the song on
this site or any other site.. so i sat down and figured it out and 
decided to share... yay for me...

both clean..


E----------------------------------------------------
B----------------------------------------------------
G---------------------------5------------------------
D--7-5-0------0---5-7----------5-7------5-3-2--------
A---------------8------------------------------------
D----------------------------------------------------

E----------------------------------------------------
B----------------------------------------------------
G----------------------------------------------------
D-----7-----7-----10-----10-----5-----5-----5------5-
A---5-----5-----8------8------3-----3-----5------5---
D-5-----5-----8------8------3-----3-----0------0-----
            
Hard to play? Try these video lessons and learn fast. | Correct




comments powered by Disqus
↑ Back to top | Tablatures and chords are parodies/interpretations of the original songs. You may use it for private study, scholarship, research or language learning purposes only