» » »

Muse, Mk Ultra Bass tabs (ver.3)

Artists:  A B C D E F G H I J K L M N O P Q R S T U V W X Y Z # 

Mk Ultra Bass tabs (ver.3)

Muse Tabs
 Rating:
4/5 (4 votes)
Mk Ultra lessons Tabs too difficult? Try these video lessons and learn fast
1
                after a bit of guitar
G7777777777777777|----------------|
D----------------|3333333377777777|
A----------------|----------------|
E----------------|----------------|

main/verse riff
G----------------|--------55555555|7777777777777777|----------------|
D----------------|33333333--------|----------------|3333333377777777|
A5555555555555555|----------------|----------------|----------------|
E----------------|----------------|----------------|----------------|

chorus
G----------------|----------------|----------------|----------------|
D----------------|----------------|----------------|----------------|
A1111111111111111|3333333333333333|4444444444444444|5555555555555555|
E----------------|----------------|----------------|----------------|

G----------------|----------------|
D----------------|----------------|
A7777777777777777|----------------|
E----------------|5555555555555555|

The prog-style break 10 tens not one zeros
G--------------------|----------------|----------------|----------------|
D--------------------|----------------|----------------|----------------|
A--------------------|----------------|----------------|----------------|
E10-10--10--10~////--|9-9--9--9~////--|8-8--8--8~////--|7-7--7--7~////--|

G----------------|----------------|----------------|----------------|
D----------------|----------------|----------------|----------------|
A----------------|----------------|----------------|----------------|
E6-6--6--6~////--|5-5--5--5~////--|5-5--5--5~////--|5-5--5--5~//35/\|

For the brekdown
G----------------|----------------|
D----------------|----------------|
A-------5-------5|-------5-------5|
E0030350-0030350-|0030350-0030350-|

repeat main riff
G----------------|--------55555555|7777777777777777|----------------|
D----------------|33333333--------|----------------|3333333377777777|
A5555555555555555|----------------|----------------|----------------|
E----------------|----------------|----------------|----------------|

for the second and third time round it's played slightly differently
G----------------|--------55555555|77777777--------|----------------|
D----------------|33333333--------|--------88888888|3333333377777777|
A5555555555555555|----------------|----------------|----------------|
E----------------|----------------|----------------|----------------|

back to the chorus
G----------------|----------------|----------------|----------------|
D----------------|----------------|----------------|----------------|
A1111111111111111|3333333333333333|4444444444444444|5555555555555555|
E----------------|----------------|----------------|----------------|

G----------------|----------------|
D----------------|----------------|
A7777777777777777|----------------|
E----------------|5555555555555/\/|

for the post chorus
G--------------------------------|----------------|----------------|
D--------------------------------|----------------|----------------|
A--------------------------------|----------------|----------------|
E10101010101010101010101010101010|9999999999999999|8888888888888888|

G----------------|----------------|----------------|----------------|
D----------------|----------------|----------------|----------------|
A----------------|--8---8---8---8-|--7---7---7-5-57|--7---7---7---7-|
E7777777777777777|66-666-666-666-6|55-555-555-5-5--|55-555-555-555-5|

G----------------|
D----------------|
A--7---7---------|
E55-555-555555555|

end riff... like the break
G----------------|----------------|----------------|----------------|
D----------------|----------------|----------------|-------5-------7|
A-------5-------5|-------5-------5|-------7-------8|----------------|
E0030350-0030350-|0030350-0030350-|0030350-0030350-|0030350-0030350-|

G-----------------|------------------|------------------|------------------|
D-------9-------10|-------11-------12|-------12-------12|-------12-------12|
A-----------------|------------------|------------------|------------------|
E0030350-0030350--|0030350--0030350--|0030350--0030350--|0030350--0030350--|

G----------------|
D----------------|
A-------12~~/////|
E0030350---------|
            
Submit corrections

comments powered by Disqus
↑ Back to top | Muse Bass for Mk Ultra. Lyrics for acoustic guitar and electric guitar. 1 Tablatures and chords are parodies/interpretations of the original songs. You may use it for private study, scholarship, research or language learning purposes only