» » »

Muse, Mk Ultra Bass tabs (ver.1)

Artists:  A B C D E F G H I J K L M N O P Q R S T U V W X Y Z # 

Mk Ultra Bass tabs (ver.1)

Muse Tabs
 Rating:
4/5 (4 votes)
Mk Ultra lessons Tabs too difficult? Try these video lessons and learn fast
1
                -------------------------------------------------------------------------------
			      MK Ultra - Muse
-------------------------------------------------------------------------------


Tuning:Drop D

Intro

G|--------------------------------------------------------------------------|
D|--12-12-12-12-12-12-12-12-12-12-12-12-12-12-12-12-3-3-3-3-3-3-3-3\7-7-7-7-|
A|--------------------------------------------------------------------------|
D|--------------------------------------------------------------------------|

G|---------|x1
D|-7-7-7-7-|
A|---------|
D|---------|

1st Verse (basically the intro just a few differences)

G|-------------------------------------------------------------------------|
D|-0-0-0-0-0-0-0-0-0-0-0-0-0-0-0-0-3-3-3-3-3-3-3-3-10-10-10-10-10-10-10-10-|
A|-------------------------------------------------------------------------|
E|-------------------------------------------------------------------------|

G|-------------------------------------------------------------------------|
D|-12-12-12-12-12-12-12-12-12-12-12-12-12-12-12-12-3-3-3-3-3-3-3-3\7-7-7-7-|
A|-------------------------------------------------------------------------|
D|-------------------------------------------------------------------------|

G|---------|x4
D|-7-7-7-7-|
A|---------|
D|---------|

Pre-chorus

play each note about 16 times

G|-------------|x1
D|-------------|
A|-1-3-4-5-7-4-|
D|-------------|

1st chorus
G|------------------------------------------------------------------------|
D|------------------------------------------------------------------------|
A|------------------------------------------------------------------------|
D|-12-12--12--/12--11-11--11--/11--10-10--10--/10--9-9--9--/9--8-8--8--/8-|

G|-------------------------------------|
D|-------------------------------------|
A|-------------------------------------|
D|-7-7--7--/7--7-7--7--/7--7-7--7--/7--|

Post chorus

G|-------------------|x4
D|-------------------|
A|-------------------|
D|-0-0-5-0-5h7-0-/12-|

2nd Verse

G|-------------------------------------------------------------------------|
D|-0-0-0-0-0-0-0-0-0-0-0-0-0-0-0-0-3-3-3-3-3-3-3-3-10-10-10-10-10-10-10-10-|
A|-------------------------------------------------------------------------|
D|-------------------------------------------------------------------------|

G|-------------------------------------------------------------------------|
D|-12-12-12-12-12-12-12-12-12-12-12-12-12-12-12-12-3-3-3-3-3-3-3-3\7-7-7-7-|
A|-------------------------------------------------------------------------|
D|-------------------------------------------------------------------------|

G|---------|x1
D|-7-7-7-7-|
A|---------|
D|---------|

G|-------------------------------------------------------------------------|
D|-0-0-0-0-0-0-0-0-0-0-0-0-0-0-0-0-3-3-3-3-3-3-3-3-10-10-10-10-10-10-10-10-|
A|-------------------------------------------------------------------------|
E|-------------------------------------------------------------------------|

G|-------------------------------------------------------------------------|x3
D|-12-12-12-12-12-12-12-12-8-8-8-8-8-8-8-8-3-3-3-3-3-3-3-3\7-7-7-7-7-7-7-7-|
A|-------------------------------------------------------------------------|
D|-------------------------------------------------------------------------|

Then pre-chorus

2nd chorus is the same thing as the 1st however it is played in 16th notes like most of 
other parts of the song also instead of playing


G|---|x16
D|---|
A|---|
D|-7-|  much like the end of the first chorus play:

G|---|x16
D|---|
A|-12|
D|---|

then:
G|-----|
D|-----|
A|-----|
D|-/12-|

then post chorus x4 to end the song

only side notes that might be worth mentioning is that chris is probably using a 
octave pedal in the verses much like in Starlight and Uprising.
            
Submit corrections

comments powered by Disqus
↑ Back to top | Muse Bass for Mk Ultra. Lyrics for acoustic guitar and electric guitar. 1 Tablatures and chords are parodies/interpretations of the original songs. You may use it for private study, scholarship, research or language learning purposes only