>
 >
Mk Ultra 2

Mk Ultra 2 Bass Tabs

Muse - Mk Ultra 2 chords, tabs, tablatures, lyrics

Guitar lessons | Add/correct | Request | Top 50 tabs Artists:  A B C D E F G H I J K L M N O P Q R S T U V W X Y Z 0-9

Mk Ultra 2 Bass Tabs – Muse

CD, Sheet music, Poster

Do you like Mk Ultra 2? Share with your friends now
Bass TabsBass Tabs v2Bass Tabs v3Bass Tabs v4Bass Tabs v5ChordsTabsTabs v2Tabs v3Tabs v4
Band: Muse
Bassist: Chris Wolstenholme
Tuning: Dropped D

Intro: 

G|----------------|--------22222222|
D|12(x16)--------\|33333333--------|
A|----------------|----------------|
D|----------------|----------------|

Verse:

G|----------------|-------------------------|---------------|
D|0000000000000000|33333333/1010101010101010|12(x16)-------\|
A|----------------|-------------------------|---------------|
D|----------------|-------------------------|---------------| 

G|----------------|
D|--------77777777|
A|88888888--------|
D|----------------| Play verse 4 times.

Chorus:

G|----------------|----------------|----------------|----------------|
D|----------------|----------------|----------------|----------------|
A|1111111111111111|3333333333333333|4444444444444444|5555555555555555|
D|----------------|----------------|----------------|----------------|

G|----------------|----------------|
D|----------------|----------------|
A|7777777777777777|0000000000000000|
D|----------------|----------------|


G|--------------|--------------|--------------|----------|----------| |
D|--------------|--------------|--------------|----------|----------| |
A|--------------|--------------|--------------|----------|----------| |
D|12-12--12-12\-|12-12--12-11\-|10-10--10-10\-|9-9--9-9\-|8-8--8-8\-| |
                                                                      | x2
G|----------|----------|----------|                                   |
D|----------|----------|----------|                                   |
A|----------|----------|----------|                                   |
D|7-7--7-7\-|7-7--7-7\-|7-7--7-7\-|                                   |

Riff:

G|----------------|
D|----------------|
A|---------------5|
D|-0-0-3-0-5-7-0--| x4

Verse:

G|----------------|-------------------------|------------------|
D|0000000000000000|33333333/1010101010101010|12(x16)----------\|
A|----------------|-------------------------|------------------|
D|----------------|-------------------------|------------------| 

G|----------------|
D|--------77777777|
A|88888888--------|
D|----------------|

G|----------------|-------------------------|------------------------| |
D|0000000000000000|33333333/1010101010101010|121212121212121288888888| |
A|----------------|-------------------------|------------------------| |
D|----------------|-------------------------|------------------------| |
                                                                       | x2
G|----------------|                                                    |
D|--------77777777|                                                    |
A|88888888--------|                                                    |
D|----------------|                                                    |

Chorus:

G|----------------|----------------|----------------|----------------|
D|----------------|----------------|----------------|----------------|
A|1111111111111111|3333333333333333|4444444444444444|5555555555555555|
D|----------------|----------------|----------------|----------------|

G|----------------|------------------------| There's 12 not 1 and 2
D|----------------|------------------------|
A|7777777777777777|00000000/121212-0121212\|
D|----------------|------------------------|


G|----------------|----------------|----------------|----------------|
D|----------------|----------------|----------------|----------------|
A|5555555555555555|5555555544444444|3333333333333333|2222222222222222|
D|----------------|----------------|----------------|----------------|

G|----------------|-----------------|---------------|----------------|
D|----------------|--------777------|---------------|----------------|
A|1111111111111111|00000000---070810|12(x16)--------|12(x15)--------\|
D|----------------|-----------------|---------------|----------------|

Riff (Outro):

G|----------------|     |-----------------|
D|----------------|     |-----------------|
A|---------------5|     |---------------5\|
D|-0-0-3-0-5-7-0--| x15 |-0-0-3-0-5-7-0---|

/  slide up
\  slide down
h  hammer-on
p  pull-off
~  let ring





Comments


Popular Muse tabs & chords
Bliss 4 Bass Tabs
Dead Star 5 Bass Tabs
Big Freeze 3 Chords
Blackout Chords
Hyper Chondriac Music Chords
In Your World 2 Tabs
In Your World 6 Tabs
New Born 2 Tabs
Spiral Static Tabs
Guiding Light Ukulele


Song lyrics



↑ Back to top | Tablatures and chords are parodies/interpretations of the original songs. You may use it for private study, scholarship, research or language learning purposes only
© 2014 AZChords.com Contact us | Privacy policy | DMCA | Add/correct tabs | Request tabs | Top 50 tabs