>
 >
Mk Ultra 2

Mk Ultra 2 Guitar Tabs

Muse - Mk Ultra 2 chords, tabs, tablatures, lyrics

Guitar lessons | Add/correct | Request | Top 50 tabs Artists:  A B C D E F G H I J K L M N O P Q R S T U V W X Y Z 0-9

Mk Ultra 2 Guitar Tabs – Muse

CD, Sheet music, Poster

Do you like Mk Ultra 2? Share with your friends now
Bass TabsBass Tabs v2Bass Tabs v3Bass Tabs v4Bass Tabs v5ChordsTabsTabs v2Tabs v3Tabs v4
Muse - MK Ultra
The Resistance (2009)

The making of DVD shows Matt playing at this octave on the top two strings,
so the riff is definitely correct. Not positive about which string the
"heavy" riffs are played on but all has the right notes.
- Gaz_m2k5	(04/10/09)

Key
/ \ s - slide
p - pull off
One tremolo part written on the tab


DADGBe - Drop D tuning


Intro Riff/Chorus

e--13------12--13------12--13------|-------13----------13----------13---|
B-----10----------10----------10--|---11------10--11------10--11-------|
G----------------------------------|------------------------------------|
D----------------------------------|------------------------------------|
A---------------------------------|------------------------------------|
D----------------------------------|------------------------------------|



e----------13----------13----------|---15----------15----------15-------|
B--10--13------10--13------10--13--|-------12--13------12--13------12---|
G----------------------------------|------------------------------------|
D----------------------------------|------------------------------------|
A----------------------------------|------------------------------------|
D----------------------------------|------------------------------------|



e----------17----------17----------|---20----------20----------20-------|
B--12s/15------12--15------12--15--|-------15--20------15--20------15s--|
G----------------------------------|------------------------------------|
D----------------------------------|------------------------------------|
A----------------------------------|------------------------------------|
D----------------------------------|------------------------------------|



e------13--17------13--17------13--|---15--13--12------13--12-----------|
B-\13----------13----------13------|---------------14----------14--11--|
G----------------------------------|------------------------------------|  x2
D----------------------------------|------------------------------------|
A----------------------------------|-----------------------------------|
D----------------------------------|------------------------------------|



Verse


e----------------------------------|------------------------------------|
B-10--10--10--10--10--10--10--10---|--10--10--10--10--10--10--10--10----|
G----------------------------------|------------------------------------|
D----------------------------------|------------------------------------|
A----------------------------------|------------------------------------|
D----------------------------------|------------------------------------|

   			       The   wave   length   gently    grows



e----------------------------------|------------------------------------|
B-10--10--10--10--10--10--10--10---|--10--10--10--10--10--10--10--10----|
G----------------------------------|------------------------------------|
D----------------------------------|------------------------------------|
A----------------------------------|------------------------------------|
D----------------------------------|------------------------------------|

		Coercive 	      notions    re    evolve



e----------------------------------|------------------------------------|
B-10--10--10--10--10--10--10--10---|--10--11--11--11--11--11--11--11----|
G----------------------------------|------------------------------------|
D----------------------------------|------------------------------------|
A----------------------------------|------------------------------------|
D----------------------------------|------------------------------------|

				A           universe        is        trapped



e----------------------------------|------------------------------------|
B-11--10--10--10--10--10--10--10---|--10---8---8---8---8---8---8---8----|
G----------------------------------|------------------------------------|
D----------------------------------|------------------------------------|
A----------------------------------|------------------------------------|
D----------------------------------|------------------------------------|

                 inside     a        tear            -



e----------------------------------|------------------------------------|
B-10--10--10--10--10--10--10--10---|--10--10--10--10--10--10--10--10----|
G----------------------------------|------------------------------------|
D----------------------------------|------------------------------------|
A----------------------------------|------------------------------------|
D----------------------------------|------------------------------------|

			It            resonates        the       core


e----------------------------------|------------------------------------|
B-10p8-10-10--10--10--10--10--10---|--10--10--10--10--10--10--10--10----|
G----------------------------------|------------------------------------|
D----------------------------------|------------------------------------|
A----------------------------------|------------------------------------|
D----------------------------------|------------------------------------|

			Creates            unnatural             laws



e----------------------------------|------------------------------------|
B-10--10--10--10--10--10--10--10---|--10--11--11--11--11--11--11--11----|
G----------------------------------|------------------------------------|
D----------------------------------|------------------------------------|
A----------------------------------|------------------------------------|
D----------------------------------|------------------------------------|

			Replaces              love       and        happiness


e----------------------------------|------------------------------------|
B-11--10--10--10--10--10--10--10---|--10---8---8---8---8---8---8---8----|
G----------------------------------|------------------------------------|
D----------------------------------|------------------------------------|
A----------------------------------|------------------------------------|
D----------------------------------|------------------------------------|

		   	with         fear            -



Chorus

e--13------12--13------12--13------|-------13----------13----------13---|
B------10----------10----------10--|---11------10--11------10--11-------|
G----------------------------------|------------------------------------|
D----------------------------------|------------------------------------|
A----------------------------------|------------------------------------|
D----------------------------------|------------------------------------|

					Ooooooh


e----------13----------13----------|---15----------15----------15-------|
B--10--13------10--13------10--13--|-------12--13------12--13------12---|
G----------------------------------|------------------------------------|
D----------------------------------|------------------------------------|
A----------------------------------|------------------------------------|
D----------------------------------|------------------------------------|

         -		-			Ah		Ah


e----------17----------17----------|---20----------20----------20-------|
B--12s/15------12--15------12--15--|-------15--20------15--20------15s--|
G----------------------------------|------------------------------------|
D----------------------------------|------------------------------------|
A----------------------------------|------------------------------------|
D----------------------------------|------------------------------------|

	Ah- 		



e------13--17------13--17------13--|---15--13--12------13--12-----------|
B-\13----------13----------13------|---------------14----------14--11---|
G----------------------------------|------------------------------------|
D----------------------------------|------------------------------------|
A----------------------------------|------------------------------------|
D----------------------------------|------------------------------------|



Bridge


e----------------------------------|------------------------------------|
B-10--10--10--10--10--10--10--10---|--10--10--10--10--10--10--10--10----|
G----------------------------------|------------------------------------|
D----------------------------------|------------------------------------|
A----------------------------------|------------------------------------|
D----------------------------------|------------------------------------|

		  How much Deception          can         you      take?


e----------------------------------|------------------------------------|
B-10--10--10--10--10--10--10--10---|--10--10--10--10--10--10--10--10----|
G----------------------------------|------------------------------------|
D----------------------------------|------------------------------------|
A----------------------------------|------------------------------------|
D----------------------------------|------------------------------------|

		  How   many lives          will          you      create?



e----------------------------------|------------------------------------|
B-10--10--10--10--10--10--10--10---|--10--10--10--10--10--10--10--10----|
G----------------------------------|------------------------------------|
D----------------------------------|------------------------------------|
A----------------------------------|------------------------------------|
D----------------------------------|------------------------------------|

		 How   much longer          until         you      break?



e----------------------------------|------------------------------------|
B-10--10--10--10--10--10--10--10---|--10--10--10--10--10--10--10--10----|
G----------------------------------|------------------------------------|
D----------------------------------|------------------------------------|
A----------------------------------|------------------------------------|
D----------------------------------|------------------------------------|

		 	       Your     mind's      about          to



e----------------------------------|------------------------------------|
B-10--11--11--11--11--11--11--11---|--11--10--10--10--10--10--10--10----|
G----------------------------------|------------------------------------|
D----------------------------------|------------------------------------|
A----------------------------------|------------------------------------|
D----------------------------------|------------------------------------|
	
      fall           -                            -



e----------------------------------|------------------------------------|
B-10--10--10--10--10--10--10--10---|--10--10--10--10--10--10--10--10----|
G----------------------------------|------------------------------------|
D----------------------------------|------------------------------------|
A----------------------------------|------------------------------------|
D----------------------------------|------------------------------------|

           -           -		        and   they're   breaking


2nd Bridge


e----------------------------------|------------------------------------|
B---------------------------------|------------------------------------|
G----------------------------------|------------------------------------|
D----------------------------------|------------------------------------|
A---------------------------------|------------------------------------|
D--12-12-----12-------12\----------|---12-12-----12-------11\-----------|

   through          -					    and they're breaking
   through          -			-			they're breaking


e----------------------------------|------------------------------------|
B----------------------------------|------------------------------------|
G----------------------------------|------------------------------------|
D----------------------------------|------------------------------------|
A----------------------------------|------------------------------------|
D--10-10-----10-------10\----------|----9--9------9--------9\-----------|

	through      -					    and they're breaking
	through      -						they're breaking


e----------------------------------|------------------------------------|
B----------------------------------|------------------------------------|
G----------------------------------|------------------------------------|
D----------------------------------|------------------------------------|
A----------------------------------|------------------------------------|
D---8--8------8--------8\----------|----7--7------7--------7\-----------|

    through
    through           -			Now    we're     falling

				    _____________________________________
				   | 1


e----------------------------------|------------------------------------|
B----------------------------------|-----------------------------------|
G----------------------------------|------------------------------------|   x2
D----------------------------------|------------------------------------|
A----------------------------------|-----------------------------------|
D---7--7------7--------7\----------|----7--7------7--------7\-----------|

   We       are        losing     control            -    and they're breaking
   We       are        losing

				    _____________________________________
				   | 2

				   e------------------------------------|
				   B------------------------------------|
				   G------------------------------------|
				   D------------------------------------|
				   A------------------------------------|
				   D---7--7------7--------7\----0/12\0--|

  				     control      -




e----------------------------------|------------------------------------|
B----------------------------------|-----------------------------------|
G----------------------------------|------------------------------------|   x2
D----------------------------------|------------------------------------|
A-------------------------5\------ |-------------------------5\--------|
D----0--0--3--0--5--7--0-----------|----0--0--3--0--5--7--0-------------|




Verse


e------------------------------------|------------------------------------|
B-10--10--10--10--10--10--10--10-----|--10--10--10--10--10--10--10--10----|
G------------------------------------|------------------------------------|
D------------------------------------|------------------------------------|
A------------------------------------|------------------------------------|
D------------------------------------|------------------------------------|


e------------------------------------|------------------------------------|
B-10--10--10--10--10--10--10--10-----|--10--10--10--10--10--10--10--10----|
G------------------------------------|------------------------------------|
D------------------------------------|------------------------------------|
A------------------------------------|------------------------------------|
D------------------------------------|------------------------------------|


e------------------------------------|------------------------------------|
B-10--10--10--10--10--10--10--10-----|--10--11--11--11--11--11--11--11----|
G------------------------------------|------------------------------------|
D------------------------------------|------------------------------------|
A------------------------------------|------------------------------------|
D------------------------------------|------------------------------------|


e------------------------------------|------------------------------------|
B-11--10--10--10--10--10--10--10-----|--10---8---8---8---8---8---8---8----|
G------------------------------------|------------------------------------|
D------------------------------------|------------------------------------|
A------------------------------------|------------------------------------|
D------------------------------------|------------------------------------|


e------------------------------------|------------------------------------|
B-10p8-10p8-10p8-10--10--10--10--10--|--10--10--10--10--10--10--10--10----|
G------------------------------------|------------------------------------|
D------------------------------------|------------------------------------|
A------------------------------------|------------------------------------|
D------------------------------------|------------------------------------|

			Invisible	           to 		      all


e------------------------------------|------------------------------------|
B-10--10--10--10--10--10--10--10-----|--10--10--10--10--10--10--10--10----|
G------------------------------------|------------------------------------|
D------------------------------------|------------------------------------|
A------------------------------------|------------------------------------|
D------------------------------------|------------------------------------|

			the              mind    becomes      a     wall



e------------------------------------|------------------------------------|
B-10p8-10p8-10--10--10--10--10--10---|--10--11--11--11--11--11--11--11----|
G------------------------------------|------------------------------------|
D------------------------------------|------------------------------------|
A------------------------------------|------------------------------------|
D------------------------------------|------------------------------------|

			All   of            history            deleted


e------------------------------------|------------------------------------|
B-11--10--10--10--10--10--10--10-----|--10---8---8---8---8---8---8---8----|
G------------------------------------|------------------------------------|
D------------------------------------|------------------------------------|
A------------------------------------|------------------------------------|
D------------------------------------|------------------------------------|

   with 	     one                stroke		-





Chorus

e--13------12--13------12--13------|-------13----------13----------13---|
B------10----------10----------10--|---11------10--11------10--11-------|
G----------------------------------|------------------------------------|
D----------------------------------|------------------------------------|
A----------------------------------|------------------------------------|
D----------------------------------|------------------------------------|

					Ooooooh


e----------13----------13----------|---15----------15----------15-------|
B--10--13------10--13------10--13--|-------12--13------12--13------12---|
G----------------------------------|------------------------------------|
D----------------------------------|------------------------------------|
A----------------------------------|------------------------------------|
D----------------------------------|------------------------------------|

         -		-			Ah		Ah


e----------17----------17----------|---20----------20----------20-------|
B--12s/15------12--15------12--15--|-------15--20------15--20------15s--|
G----------------------------------|------------------------------------|
D----------------------------------|------------------------------------|
A----------------------------------|------------------------------------|
D----------------------------------|------------------------------------|

	Ah- 		



e------13--17------13--17------13--|---15--13--12------13--12-----------|
B-\13----------13----------13------|---------------14----------14--11---|
G----------------------------------|------------------------------------|
D----------------------------------|------------------------------------|
A----------------------------------|------------------------------------|
D----------------------------------|------------------------------------|



Bridge


e----------------------------------|------------------------------------|
B-10--10--10--10--10--10--10--10---|--10--10--10--10--10--10--10--10----|
G----------------------------------|------------------------------------|
D----------------------------------|------------------------------------|
A----------------------------------|------------------------------------|
D----------------------------------|------------------------------------|

		  How much Deception          can         you      take?


e----------------------------------|------------------------------------|
B-10--10--10--10--10--10--10--10---|--10--10--10--10--10--10--10--10----|
G----------------------------------|------------------------------------|
D----------------------------------|------------------------------------|
A----------------------------------|------------------------------------|
D----------------------------------|------------------------------------|

		  How   many lives          will          you      create?



e----------------------------------|------------------------------------|
B-10--10--10--10--10--10--10--10---|--10--10--10--10--10--10--10--10----|
G----------------------------------|------------------------------------|
D----------------------------------|------------------------------------|
A----------------------------------|------------------------------------|
D----------------------------------|------------------------------------|

		 Hpw   much longer          until         you      break?



e----------------------------------|------------------------------------|
B-10--10--10--10--10--10--10--10---|--10--10--10--10--10--10--10--10----|
G----------------------------------|------------------------------------|
D----------------------------------|------------------------------------|
A----------------------------------|------------------------------------|
D----------------------------------|------------------------------------|

		 	       Your     mind's      about          to



e----------------------------------|------------------------------------|
B-10--11--11--11--11--11--11--11---|--11--10--10--10--10--10--10--10----|
G----------------------------------|------------------------------------|
D----------------------------------|------------------------------------|
A----------------------------------|------------------------------------|
D----------------------------------|------------------------------------|
	
      fall           -                            -



e----------------------------------|------------------------------------|
B-10--10--10--10--10--10--10--10---|--10--10--10--10--10--10--10--10----|
G----------------------------------|------------------------------------|
D----------------------------------|------------------------------------|
A----------------------------------|------------------------------------|
D----------------------------------|------------------------------------|

           -           -		        and   they're   breaking



Outro


e--5---5---5---5---5---5---5---5---|--5---5---5---5---5---5---5---5-----|
B--6---6---6---6---6---6---6---6---|--6---6---6---6---6---6---6---6-----|
G--7---7---7---7---7---7---7---7---|--7---7---7---7---7---7---7---7-----|
D--7---7---7---7---7---7---7---7---|--7---7---7---7---7---7---7---7-----|
A--5---5---5---5---5---5---5---5---|--5---5---5---5---5---5---5---5-----|
D----------------------------------|------------------------------------|

    through         -


e--5---5---5---5---5---5---5---5---|--5---5---5---5---5---5---5---5-----|
B--5---5---5---5---5---5---5---5---|--5---5---5---5---5---5---5---5-----|
G--6---6---6---6---6---6---6---6---|--6---6---6---6---6---6---6---6-----|
D--7---7---7---7---7---7---7---7---|--7---7---7---7---7---7---7---7-----|
A--7---7---7---7---7---7---7---7---|--7---7---7---7---7---7---7---7-----|
D----------------------------------|------------------------------------|

							They're breaking


e--3---3---3---3---3---3---3---3---|--3---3---3---3---3---3---3---3-----|
B--4---4---4---4---4---4---4---4---|--4---4---4---4---4---4---4---4-----|
G--5---5---5---5---5---5---5---5---|--5---5---5---5---5---5---5---5-----|
D--5---5---5---5---5---5---5---5---|--5---5---5---5---5---5---5---5-----|
A--3---3---3---3---3---3---3---3---|--3---3---3---3---3---3---3---3-----|
D----------------------------------|------------------------------------|

     through 	-



e--3---3---3---3---3---3---3---3---|--3---3---3---3---3---3---3---3-----|
B--3---3---3---3---3---3---3---3---|--3---3---3---3---3---3---3---3-----|
G--4---4---4---4---4---4---4---4---|--4---4---4---4---4---4---4---4-----|
D--5---5---5---5---5---5---5---5---|--5---5---5---5---5---5---5---5-----|
A--5---5---5---5---5---5---5---5---|--5---5---5---5---5---5---5---5-----|
D----------------------------------|------------------------------------|

							They're breaking


e--3---3---3---3---3---3---3---3---|--3---3---3---3---3---3---3---3-----|
B--3---3---3---3---3---3---3---3---|--3---3---3---3---3---3---3---3-----|
G--3---3---3---3---3---3---3---3---|--3---3---3---3---3---3---3---3-----|
D--5---5---5---5---5---5---5---5---|--5---5---5---5---5---5---5---5-----|
A--5---5---5---5---5---5---5---5---|--5---5---5---5---5---5---5---5-----|
D----------------------------------|------------------------------------|

    through    -


e-----3------------2---------------|---1-------------0------------------|
B--------3-----3------3-----3------|------3------3------3------3--------|
G-----------2------------2---------|---------2-------------2------------|
D----------------------------------|------------------------------------|
A----------------------------------|------------------------------------|
D----------------------------------|------------------------------------|

     Now           we're               fall     -   ing


e-----1------------1---------------|---1------------1-------------------|
B--------3------3-----3-----3------|------3-----3------3-------3--------|
G-----------2------------2---------|---------2-------------2------------|
D----------------------------------|------------------------------------|
A----------------------------------|------------------------------------|
D----------------------------------|------------------------------------|

    We           are                   lo          -sing        


e-----0------------0---------------|------------------------------------|
B--------2------2-----2-----2------|------------------------------------|
G-----------2------------2---------|------------------------------------|
D----------------------------------|------------------------------------|
A----------------------------------|---tremolo--------------------------|
D----------------------------------|--22s\0-----------------------------|

      control



e----------------------------------|------------------------------------|
B----------------------------------|------------------------------------|
G----------------------------------|------------------------------------|
D----------------------------------|------------------------------------|
A-------------------------5\-------|-------------------------5\---------|
D----0--0--3--0--5--7--0-----------|----0--0--3--0--5--7--0-------------|


e----------------------------------|------------------------------------|
B----------------------------------|------------------------------------|
G----------------------------------|------------------------------------|
D----------------------------------|------------------------------------|
A-------------------------5\-------|-------------------------5\---------|
D----0--0--3--0--5--7--0-----------|----0--0--3--0--5--7--0-------------|


e----------------------------------|------------------------------------|
B----------------------------------|------------------------------------|
G----------------------------------|------------------------------------|
D----------------------------------|------------------------------------|
A-------------------------7\-------|-------------------------8\---------|
D----0--0--3--0--5--7--0-----------|-------0--3--0--5--7--0-------------|


e----------------------------------|------------------------------------|
B----------------------------------|------------------------------------|
G----------------------------------|------------------------------------|
D-------------------------5\-------|--------------------------7\--------|
A----------------------------------|------------------------------------|
D-------0--3--0--5--7--0-----------|-------0--3--0--5--7--0-------------|


e----------------------------------|------------------------------------|
B----------------------------------|------------------------------------|
G----------------------------------|------------------------------------|
D-------------------------8\-------|--------------------------9\--------|
A----------------------------------|------------------------------------|
D-------0--3--0--5--7--0-----------|-------0--3--0--5--7--0-------------|


e----------------------------------|------------------------------------|
B----------------------------------|------------------------------------|
G----------------------------------|------------------------------------|
D-------------------------10\------|-------------------------12\--------|
A----------------------------------|------------------------------------|
D-------0--3--0--5--7--0-----------|-------0--3--0--5--7--0-------------|


e----------------------------------|------------------------------------|
B----------------------------------|------------------------------------|
G----------------------------------|------------------------------------|
D-------------------------12\------|-------------------------12\--------|
A----------------------------------|------------------------------------|
D-------0--3--0--5--7--0-----------|-------0--3--0--5--7--0-------------|


e----------------------------------|------------------------------------|
B----------------------------------|------------------------------------|
G----------------------------------|------------------------------------|
D-------------------------12\------|-------------------------12---\0----|
A----------------------------------|------------------------------------|
D-------0--3--0--5--7--0-----------|-------0--3--0--5--7--0-------------|





Comments


Popular Muse tabs & chords
Cant Take My Eyes Off You Bass Tabs
Exo-politics Bass Tabs
Minimum 6 Bass Tabs
Easily Chords
Blackout 2 Tabs
Exogenesis Symphony Part 1 Overture Tabs
Falling Away With You Tabs
Map Of The Problematique 3 Tabs
Mk Ultra 1 Tabs
Unintended 1 Tabs


Song lyrics



↑ Back to top | Tablatures and chords are parodies/interpretations of the original songs. You may use it for private study, scholarship, research or language learning purposes only
© 2014 AZChords.com Contact us | Privacy policy | DMCA | Add/correct tabs | Request tabs | Top 50 tabs