>
 >
Mk Ultra

Mk Ultra Guitar Tabs

Muse - Mk Ultra chords, tabs, tablatures, lyrics

Guitar lessons | Add/correct | Request | Top 50 tabs Artists:  A B C D E F G H I J K L M N O P Q R S T U V W X Y Z 0-9

Mk Ultra Guitar Tabs – Muse

CD, Sheet music, Poster

Do you like Mk Ultra? Share with your friends now
Bass TabsBass Tabs v2Bass Tabs v3Bass Tabs v4Bass Tabs v5ChordsTabsTabs v2Tabs v3Tabs v4
-------------------------------------------------------------------------------
-------------------------------------------------------------------------------

Tuning: Standard (Drop D)

Not sure about the Chorus and Outro Part 1... rest is 100% correct.

Intro: x 2

e|-------------------------------------------------------------------------|
B|-6---5-6---5-6-----6-----6-----6-----6-----6-----8-------8-------8-------|
G|-----------------------------------5-----5-----5-------------------------|
D|---7-----7-----7-8---7-8---7-8---7-----7-----7------9-10----9-10----9-10-|
A|-------------------------------------------------------------------------|
E|-------------------------------------------------------------------------|

e|-------------------------------------------------------------------------|
B|----10-------10-------11-------11-------11-----------10-------10---------|
G|--------------------------------------------------10-------10-------10---|
D|-12----10-12----10-12----10-12----10-12----10--10-------10-------10------|
A|-------------------------------------------------------------------------|
E|-------------------------------------------------------------------------|

e|-------------------------------|
B|-------------------------------|
G|--12--10--9------10--9---------|
D|-------------11---------11--8--|
A|-------------------------------|
E|-------------------------------|

Verse: x 2

e|----------------------------------|
B|----------------------------------|
G|----------------------------------|
D|--7-(x30ish)-8-(x8)-7-(x8)-5 (x8)-|
A|----------------------------------|
E|----------------------------------|

Intro x 1

Chorus:

e|----------------------------------------------------------------|
B|----------------------------------------------------------------|
G|-7-------9-------10-------12------10------9------7------6-------|
D|-x-(x16)-x-(x32)-x--(x16)--x-(x4)-x--(x4)-x-(x4)-x-(x4)-x-(x16)-|
A|-5-------7-------8--------10------8-------7------5------4-------|
E|----------------------------------------------------------------|

Interlude: x 2

e|-----------------------------------------------------------------|
B|-----------------------------------------------------------------|
G|-----------------------------------------------------------------|
D|-----------------------------------------------------------------|
A|-12-12--12--12\---12-12--12--11\---10-10--10--10\---9-9--9--9\---|
E|-12-12--12--12\---12-12--12--11\---10-10--10--10\---9-9--9--9\---|
   x  x   x         x  x   x         x  x   x         x x  x

e|---------------------------------------------------- | ------|
B|---------------------------------------------------- | ------|
G|---------------------------------------------------- | ------|
D|---------------------------------------------------- | ------|
A|-8-8--8--8\---7-7--7--7\---7-7--7--7\---7-7--7--7\-- | ------|
E|-8-8--8--8\---7-7--7--7\---7-7--7--7\---7-7--7--7\-- | -15\--| <- 2nd time
   x x  x       x x  x       x x  x       x x  x


Riff:

e|--------------------------|
B|--------------------------|
G|--------------------------|
D|----------------------5\--| x 4
A|-0--0--3--0--5--7--0------|
E|-0--0--3--0--5--7--0------|


Verse x 2

Intro x 1

Chorus x 1

Outro Part 1:

e|-----------------------------------------------|
B|-----------------------------------------------|
G|-7------10------9--------5------8------7-------|
D|-x-(x8)-x--(x8)-x-(x16)--x-(x8)-x-(x8)-x-(x16)-|
A|-5------8-------7--------3------6------5-------|
E|-----------------------------------------------|

e|------------------------------------|
B|------------------------------------|
G|-3------7-------10------9-----------|
D|-x-(x8)-x-(x24)-x-(x16)-x-let ring--|
A|-1------5-------8-------7-----------|
E|------------------------------------|

e|------------------------------------|
B|------------------------------------|
G|------------------------------------|
D|------------------------------------|
A|------------------------------------|
E|-1515141411313121210109988776655\---|


Outro Part 2:

e|--------------------------|
B|--------------------------|
G|--------------------------|
D|--------------------------| x 3
A|-0--0--3--0--5--7--0--5\--|
E|-0--0--3--0--5--7--0------|

e|--------------------------|
B|--------------------------|
G|--------------------------|
D|--------------------------| x 2
A|-0--0--3--0--5--7--0--7\--|
E|-0--0--3--0--5--7--0------|

e|--------------------------|--------------------------|
B|--------------------------|--------------------------|
G|--------------------------|--------------------------|
D|--------------------------|--------------------------|
A|-0--0--3--0--5--7--0--8\--|-0--0--3--0--5--7--0--10\-|
E|-0--0--3--0--5--7--0------|-0--0--3--0--5--7--0------|

e|--------------------------|--------------------------|
B|--------------------------|--------------------------|
G|--------------------------|--------------------------|
D|--------------------------|--------------------------|
A|-0--0--3--0--5--7--0--12\-|-0--0--3--0--5--7--0--13\-|
E|-0--0--3--0--5--7--0------|-0--0--3--0--5--7--0------|

e|--------------------------|--------------------------|
B|--------------------------|--------------------------|
G|--------------------------|--------------------------|
D|--------------------------|--------------------------|
A|-0--0--3--0--5--7--0--14\-|-0--0--3--0--5--7--0--15\-|
E|-0--0--3--0--5--7--0------|-0--0--3--0--5--7--0------|

e|--------------------------|
B|--------------------------|
G|--------------------------|
D|--------------------------| x 4
A|-0--0--3--0--5--7--0--17\-|
E|-0--0--3--0--5--7--0------|


| /  slide up
| \  slide down
| h  hammer-on
| p  pull-off
| ~  vibrato
| +  harmonic
| x  Mute note
===============================================================================





Comments


Popular Muse tabs & chords
Feeling Good 7 Bass Tabs
Pink Ego Box 1 Bass Tabs
Big Freeze Chords
Hoodoo 2 Chords
Assassin Drum Tabs
Can Take My Eyes Off You Tabs
Close Encounters Tabs
Fillip 1 Tabs
Knights Of Cydonia 4 Tabs
Sing For Absolution Tabs


Song lyrics



↑ Back to top | Tablatures and chords are parodies/interpretations of the original songs. You may use it for private study, scholarship, research or language learning purposes only
© 2014 AZChords.com Contact us | Privacy policy | DMCA | Add/correct tabs | Request tabs | Top 50 tabs