» » »

Futurism Tabs (ver.3)

Artists:  A B C D E F G H I J K L M N O P Q R S T U V W X Y Z # 

Futurism Tabs (ver.3)

Muse
Rating:
0/5 (0 votes)

Hard to play? Try these video lessons and learn fast.
                Muse - Futurism

Standard tuning
E-------------------10--------------10-10-10-10-10-
B-------------------10--------------10-10-10-10-10-
G--6--5--3---5b--10-----8--7--5---7b---------------
A----------5--------------------6------------------
D--------------------------------------------------
E-------------------------------------------------- x2

Chorus

   grounded          boxed in
E--2-2-2-2--3-3-3----2-2-2-2--3-3-3---6-6-6-6-6-6-6-6---3-3-3-3-3-3-3-3-
B--3-3-3-3--3-3-3----2-2-2-2--3-3-3---6-6-6-6-6-6-6-6---3-3-3-3-3-3-3-3-
G--2-2-2-2--0-0-0----3-3-3-3--0-0-0---7-7-7-7-7-7-7-7---4-4-4-4-4-4-4-4-
D--0-0-0-0--0-0-0----2-2-2-2--0-0-0---8-8-8-8-8-8-8-8---5-5-5-5-5-5-5-5-
A--0-0-0-0--2-2-2----4-4-4-4--2-2-2---8-8-8-8-8-8-8-8---5-5-5-5-5-5-5-5-
E--2-2-2-2--3-3-3----2-2-2-2--3-3-3---6-6-6-6-6-6-6-6---3-3-3-3-3-3-3-3-  x2

Intro x2

Chorus x4

Solo
E----------------------------------------------------------
B---------------8---------8-----------8----------8---------
G-----------------8--7--8----8--7--8----7--5--7----7--5--7-   
D--5--7b--7--9b--------------------------------------------
A----------------------------------------------------------
E----------------------------------------------------------  x2

E----17-17-17-17-17-17-17-17-------------------------------------------- 
B-----------------------------10-10-10-10-10-10-10-10~~~~---------------
G---------------------------------------------------------8~~~~~--12~~~-
D-----------------------------------------------------------------------
A-----------------------------------------------------------------------
E-----------------------------------------------------------------------

~~~=tremolo bar used!
            
Hard to play? Try these video lessons and learn fast. | Correct




comments powered by Disqus
↑ Back to top | Tablatures and chords are parodies/interpretations of the original songs. You may use it for private study, scholarship, research or language learning purposes only