» » »

Muse, Futurism Bass tabs (ver.3)

Artists:  A B C D E F G H I J K L M N O P Q R S T U V W X Y Z # 

Futurism Bass tabs (ver.3)

Muse Tabs
Rating:
0/5 (0 votes)
Futurism lessons Tabs too difficult? Try these video lessons and learn fast
                Muse - Futurism

Intro/Verse-
G--0-0-12-0-7-0-6-7-----7-------6--------5-0-2-3-2-0-----3-------2----|
D------------------------------------------------------------0-0---0--|
A-------------------5-5---5--4-4---4-3-3------------1-1---1-----------|
E---------------------------------------------------------------------|

Chorus-
G---------------------------------------------------------------------|
D---------------------------------------------------------------------|
A---------------------------------------------------------------------|
E--3-3-3-3-3--3--5-5-5-5-5--5--5-7-8-8-8-8-8-8-8-8-8-7-7-7-7-7-7-7-7--|


Breakdown-
G---------------------------------------------------------------------|
D---------------------------------------------------------------------|
A---------------------------------------------------------------------|
E--3-3-3-3-3-3-3-3-5-5-5-5-5-5-5-5-7-8-8-8-8-8-8-8-8-7-7-7-7-7-7-7-7--|


End on-
G-------------------------------------------------|
D-------------------------------------------------|
A-------------------------------------------------|
E--3-3-3-3-3-3-3-3-5-5-5-5-5-5-5-5-7-8ring-7ring--|


Intro/Verse x8
Chorus      x2
Intro/verse x6
Chorus      x2
Breakdown   x2
Chorus      x2
End on      x1

Fin!
            
Submit corrections

comments powered by Disqus
↑ Back to top | Muse Bass for Futurism. Lyrics for acoustic guitar and electric guitar. Tablatures and chords are parodies/interpretations of the original songs. You may use it for private study, scholarship, research or language learning purposes only