» » »

Muse, Futurism Tabs (ver.1)

Artists:  A B C D E F G H I J K L M N O P Q R S T U V W X Y Z # 

Futurism Tabs (ver.1)

Muse Tabs
 Rating:
4/5 (4 votes)
Futurism lessons Tabs too difficult? Try these video lessons and learn fast
                FUTURISM

Standard tuning  starts with basse
E--------------------------------10------------------------------------X--X--X-
B--------------------------------10------------------------------------X--X--X-
G--6--5--3-------5bend-----10---------8--7--5-----------------7bend----X--X--X-
D--------------5----------------------------------------6--------------X--X--X-
E----------------------------------------------------------------------X--X--X-

Chorus   ( i think )

E--2----3----------2----3---------6-----3
B--3----3----------2----3---------6-----3
G--2----0----------3----0---------7-----4
D--0----0----------2----0---------8-----5
A--0----2----------4----2---------8-----5
E--2----3----------2----3---------6-----3
Solo

E--------------------------------------------------------------------------------
B------------------------------8-----------8------------8--------------8---------
G---------------------------------8--7--8----8--7--8-----7--5--7---------7--5--7-   
D--5--7^--7^---7--9^--9^-------------------------------------------------------
A-------------------------------------------------------------------------------
E------------------------------------------------------------------------------

^ = bend
repeat this twice then

E----17^--17^--17^--17^-------------------------------------------------- 
B-----------------------------10^--10^--10^--10^--10---------------------
G---------------------------------------------------------8-----------12-
D------------------------------------------------------------------------
A------------------------------------------------------------------------
E------------------------------------------------------------------------

pick really fast
            
Submit corrections

comments powered by Disqus
↑ Back to top | Muse Tabs for Futurism. Lyrics for acoustic guitar and electric guitar. Tablatures and chords are parodies/interpretations of the original songs. You may use it for private study, scholarship, research or language learning purposes only