» » »

Muse, Futurism Bass tabs (ver.2)

Artists:  A B C D E F G H I J K L M N O P Q R S T U V W X Y Z # 

Futurism Bass tabs (ver.2)

Muse Tabs
Rating:
0/5 (0 votes)
Futurism lessons Tabs too difficult? Try these video lessons and learn fast
                --:Hey ho, this is my first tab on the web, I've tabbed stuff before but always found
other people have already beaten me to it - but this one is speshal :)  Special because I
no-one has done a decent tab for it...and it took me ages to work it out properly:--

This should be spot on - there's months of playing it been put into it -besides the
amounts, I'm doing this by memory-  and I'm a massive Muse fan so I know Chris prefers
bass up on 12 on A+E rather than low down on D+G  lol

Band: Muse

Tuning: EADG (You may find this easier to play in drop D, for this you will have to
up all the notes I've written for E by 2 frets.  Easier on the hand :p)  Usually you can
which strings they're on by the tone of the notes, bass distortion is so much better on 
heavy strings, especially high up


Avec mucho bass distortion/overdrive:

Intro/verses:

G||-0-0-12-0--------------------------------|---------------------|
D||---------12-0-11-12--------12-------11---|----10---------------|
A||-----------------------------------------|-------10-12-13-12-10|
E||---------------------10-10---10-9-9----9-|8-8------------------|

G|--------------------||
D|-----8--------------||
A|---------------12---||
E|-6-6---6/10-10----10||

Choruses:

G|--------------------|--------------------------------|
D|--------------------|--------------------------------|
A|-10-10-10-10-10-10~-|-12-12-12-12-12-12~-12-14-14-14-|
E|--------------------|--------------------------------|

G|----------------|---------------|
D|----------------|---------------|
A|----------------|---------------|
E|-8-8-8-8-8-8-8-8|7-7-7-7-7-7-7-5|

Outro:
G|--------------------|--------------------------------|
D|--------------------|--------------------------------|
A|-10-10-10-10-10-10~-|-12-12-12-12-12-12~-12-14-14-14-|
E|--------------------|--------------------------------|

G|----------------|---------------||
D|----------------|---------------||
A|----------------|---------------||
E|-8~\------------|3~-------------||

Intro x4
Verse x4
Chorus x2
Verse x4
Chorus x7
Outro
            
Submit corrections

comments powered by Disqus
↑ Back to top | Muse Bass for Futurism. Lyrics for acoustic guitar and electric guitar. Tablatures and chords are parodies/interpretations of the original songs. You may use it for private study, scholarship, research or language learning purposes only