» » »

Muse, Futurism Bass tabs (ver.1)

Artists:  A B C D E F G H I J K L M N O P Q R S T U V W X Y Z # 

Futurism Bass tabs (ver.1)

Muse Tabs
 Rating:
4/5 (4 votes)
Futurism lessons Tabs too difficult? Try these video lessons and learn fast
                Use a Vintage bass effect with high gain for an approximation

h = hammer on
/ = slide up
\ = slide down

Intro and Verse

G|-------12--------------------------------------------------
D|-------------10----9h10----------12------------11----------
A|-10-10----10----10-----------------------------------------
E|--------------------------10-10-----10---9-9-------9-------


G|-----------------------------------------------------------
D|-------10-----------------------------------7--------------  Several
A|--------------9/10\9--8---------8------5--5-----5----------  Times
E|-8--8------8--------------6--6----6------------------------




Chorus and Outro

G|-----------------------------------------------------------
D|--55555-5---77777-7----------------------------------------
A|----------------------0h2-3-3-3-3-3-3-3-3-2-2-2-2-2-2-2-2--
E|-----------------------------------------------------------


     __
   +|oo|+     I can't remember who I stole this picture off but the tab is
     ||
     ||
     ||
     ||
     ||
     ||
  _  ||  _
  \\_||_//
   | [] |
   | ||o|
  /  []o \
  \__==__/
            
Submit corrections

comments powered by Disqus
↑ Back to top | Muse Bass for Futurism. Lyrics for acoustic guitar and electric guitar. Tablatures and chords are parodies/interpretations of the original songs. You may use it for private study, scholarship, research or language learning purposes only