» » »

You Will Be A Hot Dancer Tabs (ver.1)

Artists:  A B C D E F G H I J K L M N O P Q R S T U V W X Y Z # 

You Will Be A Hot Dancer Tabs (ver.1)

Incubus
Rating:
0/5 (0 votes)

Hard to play? Try these video lessons and learn fast.
                most other versions i have played were pants so here is my attempt

-10---------------------------------------------------------------------------
-----------------------10p9-10p9-10-10-10-10----------------------------------
-------10h12---10h12---------------------------10---10h12---------------------
                                                                              

-----------12vvvp10--10-----------12-12vvvp10--10-----------------------------
-12p10h12----------12---12b14r12-------------12---12b14r12--------------------
                                                                              

------------------------------13-12-11-10----10-------------------------------
------------------------------------------13----13-12b14vvv-------------------
--10/9---10p9-----------------------------------------------------------------
----------------10h12-10h12---------------------------------------------------
                                                                              

--------------13-13-------13---13--10-10--13p10-------------------------------
--------12-12-------12-12-----------------------------------------------------
--10-10-----------------------------------------------------------------------
               

----10-----------------------------------------------------------10--10-------
-13----13b15----10--------------------------------------------13-----13b15----
-------------12----12b14r12-----10-10--10/12---/14\12--10--12-----------------
            
Hard to play? Try these video lessons and learn fast. | Correct




comments powered by Disqus
↑ Back to top | Tablatures and chords are parodies/interpretations of the original songs. You may use it for private study, scholarship, research or language learning purposes only