>
 >
You Will Be A Hot Dancer 2

You Will Be A Hot Dancer 2 Bass Tabs

Incubus - You Will Be A Hot Dancer 2 chords, tabs, tablatures, lyrics

Guitar lessons | Add/correct | Request | Top 50 tabs Artists:  A B C D E F G H I J K L M N O P Q R S T U V W X Y Z 0-9

You Will Be A Hot Dancer 2 Bass Tabs – Incubus

CD, Sheet music, Poster

Do you like You Will Be A Hot Dancer 2? Share with your friends now
Bass Tabs
(XY) = slapped
/ and \ = slide up and down
~ = dead-note slide 
 
Intro (play 1x)
G----------------7--------------------------------
D-------------------------------------------------
A-----5--5-5-5------------------------------------
E--------------------5----------------------------
 
Verse pt.A
G-------------------------------------------------
D----------3---------------3----------------------
A-----5-5-------5-5-------------3-----------------
E-------------5-------1-1-----1-------------------

Verse pt.B
G--------------------------------------------------
D----------3---------------------------------------
A-----5-5---------------------------3-3------------
E-------------5-----3-3--4-4--5-5------------------

Verse pt.C
G------------------------7-7-5-7---7----------------
D----------3-------------------------|--------------
A-----5-5---------5-5--------------5----3-/---------
E-------------5-------------------------------------

Last B-part modified
G----------------------------------------------------------
D----------3------------ (5)----(6)-----(7)----------------
A-----5-5-------------- /--------/-------/-----------------
E-------------5------(33)---(44)---(55)--------------------
 
 
Break-Part D

G--------------------------------------------------
D--------------------------------------------------
A----------------------------3-3-------------------
E-----3-3----4-4----5-5----------------------------

Play verse 1 ptīs: A B A C A B A C A B-mod D

 
Chorus 

G--------------------------------------------------
D--------------------------------------------------
A--------------------------------------------------
E------0-0--/--13--\----% 3x || --0-0-/--1--\------

G--------------------------------------------------
D--------------------------------------------------
A--------------------------------------------------
E------0-0--/--13--\-----% 3x ||--0-0-/--1--\------

Fill 1

G-----(7)-------(7)-------(7)-------(7)--------7/8-(7/8)-7/8\7----------------
D-----------------------------------------------------------------------------
A---------(55)------(55)-----(55)------(5`5)----------------------------------
E-----------------------------------------------------------------------------

G--------------------------------6---5-----------
D-------------------------------/----/------------
A---(0)-5-5-(0)--4-4-(0)---4----3-----------------
E-------------------------------------------------

 
G------(8)-----(8)------(8)------(8)---------------5--------------
D---------------------------------------------------/-------------
A----------(6)------(6)------(6)---- (6/6)---5~7------------------
E-----------------------------------------------------------------

 
G--------------(5)-/-7-\-5---------------------------------
D---------5/7---------------7-\-5--------------------------
A----5/7----------------------------7--6-/-7-\-6-----------
E----------------------------------------------------------

Play verse: A C A B A C A B D / Chorus 2X /

Fill 2 (play 4x)

G-----------9---------9----------9----------9------------------------------------------
D----------------------------------------------------8-7----8-7------------------------
A---7-7-7----7-7-7-----7-7-7-----7-7-7------------------------7-\----------------------
E-----------------------------------------------------------------------7-7-7—0-0-0->--

Bridge (play 4x + 2x / then D (slapped)

G--------------------------7-----------------------------------------------------------
D------------------7-7-----------------5-/-7-\--------------------3--3-3---------------
A------------5-5-------5----(0)-(55)------------3--3-3-(-ģ-ģ-)-----------3-/-5---------
E----15-\------------------------------------------------------------------------------

 
Chorus 4x





Comments


Popular Incubus tabs & chords
Drive Live Bass Tabs
Echo Bass Tabs
Here In My Room 2 Bass Tabs
Look Alive Bass Tabs
Pendolous Threads Bass Tabs
Priceless 3 Bass Tabs
Are You In (Intro Ver 2) Tabs
Certain Shade Of Green Tabs
Priceless 2 Tabs
The Warmth 5 Tabs


Song lyrics



↑ Back to top | Tablatures and chords are parodies/interpretations of the original songs. You may use it for private study, scholarship, research or language learning purposes only
© 2014 AZChords.com Contact us | Privacy policy | DMCA | Add/correct tabs | Request tabs | Top 50 tabs