» » »

Under My Umbrella Tabs (ver.3)

Artists:  A B C D E F G H I J K L M N O P Q R S T U V W X Y Z # 

Under My Umbrella Tabs (ver.3)

Incubus
Rating:
0/5 (0 votes)

Hard to play? Try these video lessons and learn fast.
                Here you go. All the other versions are poo.

(Chorus/Verse)

E---------------------------------------------------
B-------6-------------------------------------------
G--10---5----6--------------------------------------
D--10---6----6----3---------------------------------
A--8----4----4----3---------------------------------
E-----------------1---------------------------------


E---------------------------------------------------
B---------------------------------------------------
G--10---8----6----8----6----------------------------
D--10---8----6----8----6----------------------------
A--8----6----4----6----4----------------------------
E---------------------------------------------------

(Verse)

E---------------------------------------------------
B---------------------------------------------------
G---------------------------------------------------
D---------------------------------------------------
A----------13---------------------------------------
E-----11--------------------------------------------
            
Hard to play? Try these video lessons and learn fast. | Correct




comments powered by Disqus
↑ Back to top | Tablatures and chords are parodies/interpretations of the original songs. You may use it for private study, scholarship, research or language learning purposes only