» » »

Under My Umbrella Tabs (ver.2)

Artists:  A B C D E F G H I J K L M N O P Q R S T U V W X Y Z # 

Under My Umbrella Tabs (ver.2)

Incubus
Rating:
0/5 (0 votes)

Tabs too difficult? Try these video lessons and learn fast.
                This is my first tab so it probably has errors so sorry.
(IM PRETTY  SURE ITS CORRECT) PLEASE RATE

corrections:bumblebeetuba

Intro (Distortion)

x-10-10-10-x-10-10-10-x-10-10-10-x-10-10-10-x-10-10-10-x-10-10-11-x-10-10-10--
x-10-10-10-x-10-10-10-x-10-10-10-x-10-10-10-x-11-11-11-x-11-11-11-x-11-11-11--
x-8--8--8--x-8--8--8--x-8--8--8--x-8--8--8--x-11-11-11-x-11-11-11-x-11-11-11--
-----------------------------------------------9--9--9--x-9--9--9-x-9--9--9---
                                                                              

-10-10-10----------------------------10-10-10------------x-66//8888\\6--------
-11-11-11-3-3-3-x-3-3-3-x-3-3-3-////-10-10-10-666666666--x-66//8888\\6--------
-11-11-11-3-3-3-x-3-3-3-x-3-3-3-////-8--8--8--666666666--x-44//6666\\4--------
-9--9--9--1-1-1-x-1-1-1-x-1-1-1-////----------444444444-----------------------

Verse

---10-10-8-8-1----------10-10-8-8-0----------10-10-8-8-1---------10-10-8-8-5--
 
Chrous
x-10-10-10-x-10-10-10-x-10-10-10-x-10-10-10-x-10-10-10-x-10-10-11-x-10-10-10--
x-10-10-10-x-10-10-10-x-10-10-10-x-10-10-10-x-11-11-11-x-11-11-11-x-11-11-11--
x-8--8--8--x-8--8--8--x-8--8--8--x-8--8--8--x-11-11-11-x-11-11-11-x-11-11-11--
-----------------------------------------------9--9--9--x-9--9--9-x-9--9--9---
                                                                              

----------------------------10-10-10------------x-66//8888\\6-----------------
-3-3-3-x-3-3-3-x-3-3-3-////-10-10-10-666666666--x-66//8888\\6-----------------
-3-3-3-x-3-3-3-x-3-3-3-////-8--8--8--666666666--x-44//6666\\4-----------------
-1-1-1-x-1-1-1-x-1-1-1-////----------444444444-------------------------------


x-10-10-10-x-10-10-10-x-10-10-10-x-10-10-10-x-10-10-10-x-10-10-11-x-10-10-10--
x-10-10-10-x-10-10-10-x-10-10-10-x-10-10-10-x-11-11-11-x-11-11-11-x-11-11-11--
x-8--8--8--x-8--8--8--x-8--8--8--x-8--8--8--x-11-11-11-x-11-11-11-x-11-11-11--
-----------------------------------------------9--9--9--x-9--9--9-x-9--9--9---
                                                                              

------------------------------------------88\\66------------------------------
-6-6-6-x-6-6-6-x-6-6-6-x-6-6-6--333333333-88\\66------------------------------
-6-6-6-x-6-6-6-x-6-6-6-x-6-6-6--333333333-66\\44------------------------------
-4-4-4-x-4-4-4-x-4-4-4-x-4-4-4--111111111-------------------------------------
 

Bridge(Distortion)                                                           

-----------88\\66-------------88888--6-----------------------------------------
-66\-33----88\\66---x3--then--88888--6-----------------------------------------
-66\-33----66\\44-------------66666--4-----------------------------------------
-44\-11------------------------------------------------------------------------


 Part after bridge (some sort of effect)                                      

-5////12\\\9\\7-h9---5////12\\\9\\<7>--5///12\\\9\\7-h9--5///12\\9--<7>-------


Order:
INTRO x2

Verse- with voice
                                                                              
Chorus 

Verse- with voice

Chorus

Bridge

Part after bridge

Chorus

Bridge
            
Tabs too difficult? Try these video lessons and learn fast.




comments powered by Disqus
↑ Back to top | Tablatures and chords are parodies/interpretations of the original songs. You may use it for private study, scholarship, research or language learning purposes only