>
 >
Talk Shows On Mute 2

Talk Shows On Mute 2 Guitar Tabs

Incubus - Talk Shows On Mute 2 chords, tabs, tablatures, lyrics

Guitar lessons | Add/correct | Request | Top 50 tabs Artists:  A B C D E F G H I J K L M N O P Q R S T U V W X Y Z 0-9

Talk Shows On Mute 2 Guitar Tabs – Incubus

CD, Sheet music, Poster

Do you like Talk Shows On Mute 2? Share with your friends now
Bass TabsBass Tabs v2ChordsChords v2Chords v3TabsTabs v2Tabs v3Tabs v4Ukulele
Note:  Transcription ends where the guitar solo begins.  Solo not tabbed.  If anyone could tab the solo, it will be greatly appreciated.

||------------------|-----------------|-----------------|------------------||
||o-----------------|-----------------|-----------------|-----------------o||
||------------0-----|-----------0-----|-----------0-----|-----------9-9----||
||--2-2-2-2-2---2---|-2-2-2-2-2---2---|-2-2-0-2-2---2---|-2-2-0-2-2-9-9-0--||
||o-3-3-0-3-3-----0-|-3-3-0-3-3-----0-|-0-0-0-0-0-----0-|-0-0-0-0-0-7-7-0-o||
||------------------|-----------------|-----------------|------------------||

    PM------|         PM------|         PM------|         PM------|
                                                                          4x
||------------------|-----------------|-----------------|-----------------||
||o-----------------|-----------------|-----------------|----------------o||
||------------0-----|-----------0-----|-----------0-----|-----------9-9---||
||--2-2-2-2-2---2---|-2-2-2-2-2---2---|-2-2-0-2-2---2---|-2-2-0-2-2-9-9-0-||
||o-3-3-0-3-3-----0-|-3-3-0-3-3-----0-|-0-0-0-0-0-----0-|-0-0-0-0-0-7-7-0o||
||------------------|-----------------|-----------------|-----------------||

  Fmaj7
|--------------------------|--------------------------------|
|-----10---10--10--10--10--|-----10---10--10-10-10-(10)-10--|
|------9----9---9---9---9--|------9----9---9--9--9--(9)--9--|
|-----10---10--10--10--10--|-----10---10--10-10-10-(10)-10--|
|-8----8----8---8---8---8--|-8----8----8---8--8--8--(8)--8--|
|--------------------------|--------------------------------|

  G                                F
|-----3---3--3--3--3--|-----3---3--------1--|
|-----3---3--3--3--3--|-----3---3--------1--|
|-----4---4--4--4--4--|-----4---4--------2--|
|-5---5---5--5--5--5--|-5---5---5--3--3--3--|
|-5---5---5--5--5--5--|-5---5---5--3--3--3--|
|-3---3---3--3--3--3--|-3---3---3--1--1--1--|

  Fmaj7
|--------------------------|--------------------------------|
|-----10---10--10--10--10--|-----10---10--10-10-10-(10)-10--|
|------9----9---9---9---9--|------9----9---9--9--9--(9)--9--|
|-----10---10--10--10--10--|-----10---10--10-10-10-(10)-10--|
|-8----8----8---8---8---8--|-8----8----8---8--8--8--(8)--8--|
|--------------------------|--------------------------------|

  G                     Bb  G
|-----3---3--3--3--3--|-----3---------------|
|-----3---3--3--3--3--|-----3---------------|
|-----4---4--4--4--4--|-7---4---4--4--4--4--|
|-5---5---5--5--5--5--|-8---5---5--5--5--5--|
|-5---5---5--5--5--5--|-8---5---5--5--5--5--|
|-3---3---3--3--3--3--|-6---3---3--3--3--3--|

|-----------------|-----------------|-----------------|-----------------|
|-----------------|-----------------|-----------------|-----------------|
|-----------0-----|-----------0-----|-----------0-----|-----------9-9---|
|-2-2-2-2-2---2---|-2-2-2-2-2---2---|-2-2-0-2-2---2---|-2-2-0-2-2-9-9-0-|
|-3-3-0-3-3-----0-|-3-3-0-3-3-----0-|-0-0-0-0-0-----0-|-0-0-0-0-0-7-7-0-|
|-----------------|-----------------|-----------------|-----------------|

    Quick your time... 
  Cmaj7      Esus4      Cmaj7      Esus4
|-^0-|-(0)-|-^0-|-(0)-|-^0-|-(0)-|-^0-|-(0)--------|
|-^0-|-(0)-|-^0-|-(0)-|-^0-|-(0)-|-^0-|-(0)--------|
|-^0-|-(0)-|-^2-|-(2)-|-^0-|-(0)-|-^2-|-(2)--9-9---|
|-^2-|-(2)-|-^2-|-(2)-|-^2-|-(2)-|-^2-|-(2)--9-9-0-|
|-^3-|-(3)-|-^0-|-(0)-|-^3-|-(3)-|-^0-|-(0)--7-7-0-|
|----|-----|-^0-|-----|----|-----|-^0-|------------|

||------------------|-----------------|-----------------|-----------------||
||o-----------------|-----------------|-----------------|----------------o||
||------------0-----|-----------0-----|-----------0-----|-----------9-9---||
||--2-2-2-2-2---2---|-2-2-2-2-2---2---|-2-2-0-2-2---2---|-2-2-0-2-2-9-9-0-||
||o-3-3-0-3-3-----0-|-3-3-0-3-3-----0-|-0-0-0-0-0-----0-|-0-0-0-0-0-7-7-0o||
||------------------|-----------------|-----------------|-----------------||

    Fmaj7
||---------------------------|--------------------------------|
||o-----10---10--10--10--10--|-----10---10--10-10-10-(10)-10--|
||-------9----9---9---9---9--|------9----9---9--9--9--(9)--9--|
||------10---10--10--10--10--|-----10---10--10-10-10-(10)-10--|
||o-8----8----8---8---8---8--|-8----8----8---8--8--8--(8)--8--|
||---------------------------|--------------------------------|

  G                                F
|-----3---3--3--3--3--|-----3---3--------1-|
|-----3---3--3--3--3--|-----3---3--------1-|
|-----4---4--4--4--4--|-----4---4--------2-|
|-5---5---5--5--5--5--|-5---5---5--3--3--3-|
|-5---5---5--5--5--5--|-5---5---5--3--3--3-|
|-3---3---3--3--3--3--|-3---3---3--1--1--1-|

  Fmaj7
|--------------------------|--------------------------------|
|-----10---10--10--10--10--|-----10---10--10-10-10-(10)-10--|
|------9----9---9---9---9--|------9----9---9--9--9--(9)--9--|
|-----10---10--10--10--10--|-----10---10--10-10-10-(10)-10--|
|-8----8----8---8---8---8--|-8----8----8---8--8--8--(8)--8--|
|--------------------------|--------------------------------|

  G                     Bb  G
|-----3---3--3--3--3--|-----3----------------||
|-----3---3--3--3--3--|-----3---------------o||
|-----4---4--4--4--4--|-7---4---4--4--4--4---||
|-5---5---5--5--5--5--|-8---5---5--5--5--5---||
|-5---5---5--5--5--5--|-8---5---5--5--5--5--o||
|-3---3---3--3--3--3--|-6---3---3--3--3--3---||


|   - bar
||o - repeat start
o|| - repeat end
4x  - repeat 4 times
PM  - palm muting
()  - tied note
^   - arpeggiate





Comments


Popular Incubus tabs & chords
Hilikus Bass Tabs
Pardon Me Bass Tabs
Smile Lines 2 Bass Tabs
Aqueous Trasmissions Tabs
Beware Criminal 2 Tabs
Certain Shade Of Green Tabs
New Skin 1 Tabs
New Skin 2 Tabs
Pardon Me 1 Tabs
Love Hurts Ukulele


Song lyrics



↑ Back to top | Tablatures and chords are parodies/interpretations of the original songs. You may use it for private study, scholarship, research or language learning purposes only
© 2014 AZChords.com Contact us | Privacy policy | DMCA | Add/correct tabs | Request tabs | Top 50 tabs