» » »

Incubus, Talk Show On Mute Tabs (ver.2)

Artists:  A B C D E F G H I J K L M N O P Q R S T U V W X Y Z # 

Talk Show On Mute Tabs (ver.2)

Incubus Tabs
 Rating:
4/5 (4 votes)
Talk Show On Mute lessons Tabs too difficult? Try these video lessons and learn fast
1
                Tabbster: Jerick 

This song reminds me of a Madonna's "like a virgin"
Have fun i'm still working on teh solo i almost have it all.




Verse
e------------
b------------
g---------0--    X2
D-22-0-22--2-
A-33-0-33---0
E------------

e------------
b------------
g-22---22-0--    X2        
D-22-0-22--2-
A-00-0-00---0
E------------


Chorus


you'll get the strumming just work with it

e---5-3--------------------
b---5-3--------------------
g---5-4--------------------
D-3-5-5-8---5----2------3-3
A-3-3-5-8---5----2------3-3
E-1---3-6---3----0------1-1
       nine teen eighty four

Verse


e------------     \    
b------------      \
g---------0--    X2 \
D-22-0-22--2-        \ 
A-33-0-33---0         \
E------------          \
                        \
e------------           /     only play once
b------------          /
g-22---22-0--    X2   /      
D-22-0-22--2-        / 
A-00-0-00---0       /
E------------      /
                  /

Then

e-----0-------0
b----0-------0-
g---0-------2--       play twice
D--2-------2---
A-3-------0----
E--------------

back to

e------------     \    
b------------      \
g---------0--    X2 \
D-22-0-22--2-        \ 
A-33-0-33---0         \
E------------          \
                        \
e------------           /    play twice
b------------          /
g-22---22-0--    X2   /      
D-22-0-22--2-        / 
A-00-0-00---0       /
E------------      /
                  /


Chorus


e---5-3--------------------
b---5-3--------------------
g---5-4--------------------
D-3-5-5-8---5----2------3-3
A-3-3-5-8---5----2------3-3
E-1---3-6---3----0------1-1
       nine teen eighty four
            
Submit corrections

comments powered by Disqus
↑ Back to top | Incubus Tabs for Talk Show On Mute. Lyrics for acoustic guitar and electric guitar. 1 Tablatures and chords are parodies/interpretations of the original songs. You may use it for private study, scholarship, research or language learning purposes only