» » »

Look Alive Bass tabs (ver.3)

Artists:  A B C D E F G H I J K L M N O P Q R S T U V W X Y Z # 

Look Alive Bass tabs (ver.3)

Incubus
Rating:
0/5 (0 votes)

Tabs too difficult? Try these video lessons and learn fast.
                -------------------------------------------------------------------------------
			     LOOK ALIVE - Incubus
-------------------------------------------------------------------------------


Tuning: standard (EADG)

IMPORTANT NOTE:
i just learned the song today and decided to tab it since i saw no look alive 
bass tab here. Excuse me if isn't a 100% accurate. I'll just update it next
time.


I tabbed just the basics of the song. I didn't tab the fills at the end of the 
verses going to the chorus because i am not really sure yet. i just do my own
fill. Sorry for this. Just listen to the song to get it.

january 18, 2008


Intro+Verse: (play very fast and repeat 5x)

G|---------------------------------------------------------------|
D|--8-10-8-10------8-10-8-10------8-10-8-10-8------8-10-8-10-----|
A|-----------8-10-----------8-10-------------8-10-----------8-10-|
E|-8--------------8--------------8----------------8--------------|

G|--------------------------------------------------------------------------|
D|--------------------13---------------------13------------------13---------|
A|-8/11-11-11-11-11-10---11-11-11-11-11-11-10---11-11-11-11-11-10---11-11-11|
E|--------------------------------------------------------------------------|

G|------------|
D|---------13-|
A|-11-11-10---|
E|------------|

Chorus:

G|---------------------------------------------------------------|
D|---------------------------------------------------------------|
A|-6-6-6-6-6-6-6-6-6-6-6-6-6-6-6-8-8-8-8-8-8-8-8-8-8-8-8-8/10-10-|
E|---------------------------------------------------------------|

G|---------------------------------------------------------------------------|
D|---------------------------------------------------------------------------|
A|---------------------------------------------------------------------------|
E|-8-8-8-8-8-8-8-8-8-8-8-8-8-8-8/15-15-15-15-15-15-15-15-15-15-15-15-15-15-15|

G|---------------------------------------------------------------|
D|---------------------------------------------------------------|
A|-6-6-6-6-6-6-6-6-6-6-6-6-6-6-6-8-8-8-8-8-8-8-8-8-8-8-8-8/10-10-|
E|---------------------------------------------------------------|

G|---------------------------------------------------------------------------|
D|---------------------------------------------------------------------------|
A|---------------------------------------------------------------------------|
E|-8-8-8-8-8-8-8-8-8-8-8-8-8-8-8-8-8-8-9-9-9-9-11-11-11-11-13-13-13-13-15-15-|

G|------------------------------------------|
D|------------------------------------------|
A|------11-11-11-11-13-13-13-13-15-15-15-15-|
E|-15-15------------------------------------|

[INTRO+VERSE AGAIN 5x]

then...

Bridge: (not sure)

G|----------------------------------------------------------------------|
D|-----8h10-10-10-10-8-10-10-10-8-10-10-10-----8h10-10-10-10-8-10-10-10-|
A|-8h10------------------------------------8h10-------------------------|
E|----------------------------------------------------------------------|

G|----------------------------------------------------------------------R|
D|-----8h10-10-10-10-8-10-10-10-8-10-10-10-----8h10-10-10-10-8-10-10-10-E|
A|-8h10------------------------------------8h10-------------------------S|
E|----------------------------------------------------------------------T|

G|-----------------------------------------------------------------------|
D|------------------------10------------------------10-------------------|
A|-----------------------------------------------------------------------|
E|-8-8-8-8-8-8-8-8-8-8-8-8---8-8-8-8-8-8-8-8-8-8-8-8---8-8-8-8-8-8-8-8-8-|

G|-------------------------------------------------------------------------|
D|------10------------------------10---------------------------------------|
A|-----------------------------------13-13-13-13-13-13-13-13-13-13-13h15-13|
E|-8-8-8---8-8-8-8-8-8-8-8-8-8-8-8-----------------------------------------|

G|-------------------------------------------------------------------------|
D|-------------------------------------------------------------------------|
A|-13--13-13-13-13-13-13-13-13-13-13-13h15r13------------------------------|
E|-------------------------------------------13--13-13-13-13-13-13-13-13-13|

G|--------------------------------------------------------|
D|--------------------------------------------------------|
A|--------------------------------------------------------|
E|-13-13h15-13-13--13-13-13-13-13-13-13-13-13-13-13h15r13-|

G|--------------------------------------|
D|--------------------------------------|
A|--------------------------------------|
E|-11~---10~---9~---8~---8~---6~---3~---|

[CHORUS2x]


| /  slide up
| \  slide down
| h  hammer-on
| p  pull-off
| ~  vibrato
| +  harmonic
| x  Mute note
===============================================================================
            
Tabs too difficult? Try these video lessons and learn fast.


comments powered by Disqus
↑ Back to top | Tablatures and chords are parodies/interpretations of the original songs. You may use it for private study, scholarship, research or language learning purposes only