» » »

Incubus, Look Alive Tabs (ver.2)

Artists:  A B C D E F G H I J K L M N O P Q R S T U V W X Y Z # 

Look Alive Tabs (ver.2)

Incubus Tabs
Rating:
0/5 (0 votes)
Look Alive lessons Tabs too difficult? Try these video lessons and learn fast
                Hey guys this is the tab for the song Look alive!!! this song its not included in the 
light grenades so check it out!!!

Incubus - Look Alive

|Intro/Verse|

e----------------------------------------------------------------------------|
B----------------------------------------------------------------------------|
G----------------------------------------------------------------------------|
D--xxxxxx5-xxxxxx5-xxxxxx5-xx55xx5/10-10-10-10-10-10-10----------------------|
A----------------------------------------------------------------------------|
E----------------------------------------------------------------------------|


e-----------------------------------------------------------------------------|
B-----------------------------------------------------------------------------|
G----------------------------------------------------13-13-13-13-13-13--------|
D-10-10-10-10-10-10-10--------------------------------------------------------|
A-----------------------------------------------------------------------------|
E----------------------------11-11-11-11-11-11-11-----------------------------|

The hardest thing is rendering a .....

e--------------------------------------------------------------------|
B--------------------------------------------------------------------|
G--------------------------------------------------------------------|
D-5-xxxxxx5-xxxxxx5-xx55xx5---------------------10-------------------|
A-------------------------------------11-10-11-10-11----11-10--------|
E--------------------------------------------------------------------|
Phasor is turned on here

e------------------------------------------------------------------|
B------------------------------------------------------------------|
G------------------------------------10--------------12------------|
D-------------13---------------------------------------------------|
A-11-10-11------11-10-11-10-11----11-10--11-10-11------------------|
E------------------------------------------------------------------|

You can give me guns and politics ....

e-----------------------------------------------------------------------------|
B-----------------------------------------------------------------------------|
G-----------------------------------------------------------------------------|
D-5-xxxxxx5-xxxxxx5-xxxxxx55xx5/10-10-10-10-10-10-10-10-10--------------------|
A-----------------------------------------------------------------------------|
E-----------------------------------------------------------------------------|


e----------------------------------------------------------------------------------|
B----------------------------------------------------------------------------------|
G-----------------------------------------------------------13-13-13-13-13-13------|
D-10-10-10*-10*-10*-10*-10-10-10-10-10-10-10-10------------------------------------|
A----------------------------------------------------------------------------------|
E----------------------------------------------------------------------------------|

*There is a slow bend (up and down) here

|Chorus|

A picture says with sight ....

e--------------------------------------------------------------------------|
B--------------------------------------------------------------------------|
G--------------------------------------------------------------------------|
D-5-5-5-5-5-5-5-5-5-5-5-5-5-5---6-6-6-6-6-6-6-6-6-6-6-6-6-6----------------|
A-6-6-6-6-6-6-6-6-6-6-6-6-6-6---8-8-8-8-8-8-8-8-8-8-8-8-8-8----------------|
E--------------------------------------------------------------------------|

e-----------------------------------------------------------------------------|
B-----------------------------------------------------------------------------|
G--------------------------------------8--8---8--8---8--8---8--8--8--8--8-----|
D-------------------------------------10-10-10-10-10-10-10-10-10-10-10--------|
A-6-6-6-6-6-6-6-6-6-6-6-6-6-6-------------------------------------------------|
E-8-8-8-8-8-8-8-8-8-8-8-8-8-8-------------------------------------------------|

A picture will survive....

e-------------------------------------------------------------------|
B-------------------------------------------------------------------|
G-------------------------------------------------------------------|
D-5-5-5-5-5-5-5-5-5-5-5-5-5-5---6-6-6-6-6-6-6-6-6-6-6-6-6-6---------|
A-6-6-6-6-6-6-6-6-6-6-6-6-6-6---8-8-8-8-8-8-8-8-8-8-8-8-8-8---------|
E-------------------------------------------------------------------|

e----------------------------------------------------------------------|
B----------------------------------------------------------------------|
G----------------------------------------------------------------------|
D----------------------------------------------------------------------|
A-6-6-6-6-6-6-6-6-6-6-6-6-6-6----8-8-8-8-8-8-8-8-8-8-------------------|
E-8-8-8-8-8-8-8-8-8-8-8-8-8-8----9-9-9-9-9-9-9-9-9-9-------------------|

The note slides upwards in a scale starting from

A--8---
E--9--

at the end of the chorus, but i havent worked that out yet.

Also i know this chorus may sound wierd, but i reckon that its not
made up of a chords using more than 3 strings at the most(i picked 2)
and not made up of natural chords so to speak.

|Fill After frist Chorus|

e-----------------------------------------------------------------------|
B-----------------------------------------------------------------------|
G-----------------------------------------------------------------------|
D-8-10-8-10-8--------8-10-8-10-8------------8-10-8-10-8-----------------|
A----------------10--------------------10---------------------10--------|
E-------------------8----------------------8-----------------------8----|

e---------------------------------------------------------------------------------|
B---------------------------------------------------------------------------------|
G---------------------------------------------------------------------------------|
D--------------------10-----------------13------------------10-----------------12-|
A-11-10-11-10-11----11-10-11-10-11--11-10-11-10-11--11-10-11-10-11----------------|
E---------------------------------------------------------------------------------|

|Second Verse variation|

Give me love not suicide and ...

e------------------------------------------------------------------------------|
B------------------------------------------------------------------------------|
G------10-8--------------------------------------------------------------------|
D------------10-8--------------------------------------------------------------|
A-----------------10-8---------------------------------------------------------|
E-----------------------8------------------------------------------------------|

Note that here the bass plays the same scale twice before this guita comes in,
while mike still palys the G note (fith threat D string the intro/verse).


|Bridge|

Smile, smile and look alive....

e---x-x-x-x-x-x-x-x-x-------------------------------------------------------------|
B---x-x-x-x-x-x-x-x-x-------------------------------------------------------------|
G---x-8-x-8-x-x-8-x-8-------------------------------------------------------------|
D---x-x-x-x-x-x-x-x-x-------------------------------------------------------------|
A-6-x-x-x-x-x-x-x-x-x-6/8--x/6----------------------------------------------------|
E-8-x-x-x-x-x-x-x-x-x-8/10-x/8----------------------------------------------------|
Phasor is turned on here at some stage


|Fill| (didnt know what to call the quiet part)

e-11-10-9-8-8-6-----------------------------------------------------------------|
B-----------------9-------------------------------------------------------------|
G-------------------------------------------------------------------------------|
D-------------------------------------------------------------------------------|
A-------------------------------------------------------------------------------|
E-------------------------------------------------------------------------------|

|Outro|(played after last chorus)

e---------------------------------------|
B---------------------------------------|
G---------------------------------------|
D-8-10-8-10-8---------------------------|
A----------------10---------------------|
E--------------------8------------------|
            

comments powered by Disqus
↑ Back to top | Incubus Tabs for Look Alive. Lyrics for acoustic guitar and electric guitar. Tablatures and chords are parodies/interpretations of the original songs. You may use it for private study, scholarship, research or language learning purposes only