>
 >
Look Alive 2

Look Alive 2 Bass Tabs

Incubus - Look Alive 2 chords, tabs, tablatures, lyrics

Guitar lessons | Add/correct | Request | Top 50 tabs Artists:  A B C D E F G H I J K L M N O P Q R S T U V W X Y Z 0-9

Look Alive 2 Bass Tabs – Incubus

CD, Sheet music, Poster

Do you like Look Alive 2? Share with your friends now
Bass TabsBass Tabs v2Bass Tabs v3TabsTabs v2
                       --Incubus--
                             --Look Alive--
                           --Light Grenades--
-Intro- 0:32
                                                                        
G|------------------------------------------------------------------|   
D|---8-10-8-10-8-----8-10-8-10-8-----8-10-8-10-8-----8-10-8-10------|   
A|--------------10--------------10--------------10------------8-10--|   
E|-8---------------8---------------8---------------8----------------|     
                                                      
                                                       \ 
G|-------------------------------------------------|   |                 
D|-----------------10---------------------13-------|   | x2                
A|-11~~10-11-10-11----10--11~~10-11-10-11----10----|   |                 
E|-------------------------------------------------|   |                 
                                                       /                 
-Verse- 0:40
                                                                        \
G|------------------------------------------------------------------|   |
D|---8-10-8-10-8-----8-10-8-10-8-----8-10-8-10-8-----8-10-8-10------|   |
A|--------------10--------------10--------------10------------8-10--|   |
E|-8---------------8---------------8---------------8----------------|   |  
                                                                        |  x3
                                                       \                |
G|-------------------------------------------------|   |                |
D|-----------------10---------------------13-------|   | x2             |
A|-11~~10-11-10-11----10--11~~10-11-10-11----10----|   |                |
E|-------------------------------------------------|   |                |
                                                       /                / 
-Verse Fill- 1:07
                                                                        \
G|------------------------------------------------------------------|   |
D|---8-10-8-10-8-----8-10-8-10-8-----8-10-8-10-8-----8-10-8-10------|   |
A|--------------10--------------10--------------10------------8-10--|   |
E|-8---------------8---------------8---------------8----------------|   |  
                                                                        |  x1
                                                       \                |
G|-------------------------------------------------|   |                |
D|-----------------10---------------------13-------|   | x1             |
A|-11~~10-11-10-11----10--11~~10-11-10-11----10----|   |                |
E|-------------------------------------------------|   |                |
                                                       /                |
                                                                        |
                                                       \                |
G|-------------------------------------------------|   |                |
D|-13--13-12-12-10-10------------------------------|   | x1             |
A|--------------------13-13-11-11-10-10-8-8-5------|   |                |
E|-------------------------------------------------|   |                |
                                                       /                /

-Chorus- 1:16

G|---------------------------------------------------------------|
D|---------------------------------------------------------------|
A|-6-6-6-6-6-6-6-6-6-6-6-6-6-6-6-8-8-8-8-8-8-8-8-8-8-8-8-8-10h11-|
E|---------------------------------------------------------------|

G|---------------------------------------------------------------|
D|-10-10-10-10-10-10-10-10-10-10---------------------------------|
A|-------------------------------10-10-10-10-10-10-10-10-10-10---|
E|---------------------------------------------------------------|

G|---------------------------------------------------------------|
D|---------------------------------------------------------------|
A|-6-6-6-6-6-6-6-6-6-6-6-6-6-6-6-8-8-8-8-8-8-8-8-8-8-8-8-8-10h11-|
E|---------------------------------------------------------------|

G|-------------------------------------------------------------------|
D|-10-10-10-10-10-10-10-10-10-10-------------------------------------|
A|-------------------------------4-4-4-4-6-6-6-6-8-8-8-8-10-10-10-10-|
E|-------------------------------------------------------------------|

G|---------------------------------------------------------------|
D|-------------------------10-10-10-10-10-10-10-10---------------|
A|-11-11-11-11-13-13-13-13---------------------------------------|
E|---------------------------------------------------------------|


-Verse- 1:37
                                                                        \
G|------------------------------------------------------------------|   |
D|---8-10-8-10-8-----8-10-8-10-8-----8-10-8-10-8-----8-10-8-10------|   |
A|--------------10--------------10--------------10------------8-10--|   |
E|-8---------------8---------------8---------------8----------------|   |  
                                                                        |  x4
                                                       \                |
G|-------------------------------------------------|   |                |
D|-----------------10---------------------13-------|   | x2             |
A|-11~~10-11-10-11----10--11~~10-11-10-11----10----|   |                |
E|-------------------------------------------------|   |                |
                                                       /                /    

-Alternate Verse/Fill- 2:12
                                                                        \
G|-10-8----------10-8-----------10-8----------10-8--------------|       |
D|-----10-8----------10-8-----------10-8----------10-8----------|       |
A|---------10-8----------10-8-----------10-8----------8-10------|       | 
E|-------------8--------------8-------------8-------------------|       |
                                                                        |  x1
                                                       \                |
G|-------------------------------------------------|   |                |
D|-----------------10---------------------13-------|   | x1             |
A|-11~~10-11-10-11----10--11~~10-11-10-11----10----|   |                |
E|-------------------------------------------------|   |                |
                                                       /                |    
                                                                        |
G|-------------------------------------------------|   |                |
D|-13--13-12-12-10-10------------------------------|   | x1             |
A|--------------------13-13-11-11-10-10-8-8-5------|   |                |
E|-------------------------------------------------|   |                |
                                                       /                /
-Chorus- 2:21

G|---------------------------------------------------------------|
D|---------------------------------------------------------------|
A|-6-6-6-6-6-6-6-6-6-6-6-6-6-6-6-8-8-8-8-8-8-8-8-8-8-8-8-8-10h11-|
E|---------------------------------------------------------------|

G|---------------------------------------------------------------|
D|-10-10-10-10-10-10-10-10-10-10---------------------------------|
A|-------------------------------10-10-10-10-10-10-10-10-10-10---|
E|---------------------------------------------------------------|

G|---------------------------------------------------------------|
D|---------------------------------------------------------------|
A|-6-6-6-6-6-6-6-6-6-6-6-6-6-6-6-8-8-8-8-8-8-8-8-8-8-8-8-8-10h11-|
E|---------------------------------------------------------------|

G|-------------------------------------------------------------------|
D|-10-10-10-10-10-10-10-10-10-10-------------------------------------|
A|-------------------------------4-4-4-4-6-6-6-6-8-8-8-8-10-10-10-10-|
E|-------------------------------------------------------------------|

G|---------------------------------------------------------------|
D|-------------------------10-10-10-10-10-10-10-10---------------|
A|-11-11-11-11-13-13-13-13--------------------------8\0----------|
E|---------------------------------------------------------------|


[Break] 2:42-2:49


-Bridge- 2:50
                                                \
G|-----------------------------------------|    | 
D|-----8h10-10-10-10-8h10-10-10-8h10-10-10-|    |  x3
A|-8h10------------------------------------|    |
E|-----------------------------------------|    |  
                                                /
                                   \            
G|------------------------------|  |
D|-----8h10-10-10-10-8h10-10-10-|  |  x3
A|-8h10-------------------------|  |
E|------------------------------|  | 
                                   /             
[Small Break] 2:58-2:58
                                                         \
G|--------------------------------------------------|    |
D|-8h10-10-10-10-10-10-10-10-10-10-10-10-10-10-10---|    |  x4
A|--------------------------------------------------|    | 
E|--------------------------------------------------|    |
                                                         /
                                         \             
G|-----------------------------------|   |
D|-8-8-8-8-8-8-8-8-8-8-8-8-8-8-8-10--|   |  x2
A|-----------------------------------|   |
E|-----------------------------------|   |
                                         /

                                         \
G|-----------------------------------|   |
D|-----------------------------------|   |  x2
A|-8-8-8-8-8-8-8-8-8-8-8-8-8-8-8-10--|   |
E|-----------------------------------|   |
                                         /
(3:17)

G|-12---10----10----8----8----7----1----|
D|--------------------------------------|
A|--------------------------------------|
E|-11----10----9----8----8----6----1----|

-Chorus- 3:35
                                                                       \
G|---------------------------------------------------------------|     |
D|---------------------------------------------------------------|     |
A|-6-6-6-6-6-6-6-6-6-6-6-6-6-6-6-8-8-8-8-8-8-8-8-8-8-8-8-8-10h11-|     |
E|---------------------------------------------------------------|     |
                                                                       | 
G|---------------------------------------------------------------|     |
D|-10-10-10-10-10-10-10-10-10-10---------------------------------|     |  2x
A|-------------------------------10-10-10-10-10-10-10-10-10-10---|     |
E|---------------------------------------------------------------|     |  
                                                                       |
G|---------------------------------------------------------------|     |
D|---------------------------------------------------------------|     |
A|-6-6-6-6-6-6-6-6-6-6-6-6-6-6-6-8-8-8-8-8-8-8-8-8-8-8-8-8-10h11-|     |
E|---------------------------------------------------------------|     |
                                                                       |
G|-------------------------------------------------------------------| |
D|-10-10-10-10-10-10-10-10-10-10-------------------------------------| |
A|-------------------------------4-4-4-4-6-6-6-6-8-8-8-8-10-10-10-10-| |
E|-------------------------------------------------------------------| |
                                                                       |
G|---------------------------------------------------------------|     |
D|-------------------------10-10-10-10-10-10-10-10---------------|     |
A|-11-11-11-11-13-13-13-13--------------------------8\0----------|     |
E|---------------------------------------------------------------|     |    
                                                                       /

By Kevin G Giersch
Dedicated to Samantha C Krueger

Based loosely on DavidSinRocks' bass cover of this song..

Enjoy!





Comments


Popular Incubus tabs & chords
Nice To Know You Bass Tabs
Thieves Bass Tabs
Drive 4 Chords
Paper Shoes Chords
La La La Zoom Zoom Zoom 1 Tabs
Pistola Tabs
Redefine 4 Tabs
Summer Romance 1 Tabs
Wish You Were Here [100% Correct] Tabs
Pendulous Threads Ukulele


Song lyrics



↑ Back to top | Tablatures and chords are parodies/interpretations of the original songs. You may use it for private study, scholarship, research or language learning purposes only
© 2014 AZChords.com Contact us | Privacy policy | DMCA | Add/correct tabs | Request tabs | Top 50 tabs