» » »

Incubus, Idiot Box Tabs (ver.2)

Artists:  A B C D E F G H I J K L M N O P Q R S T U V W X Y Z # 

Idiot Box Tabs (ver.2)

Incubus Tabs
 Rating:
4/5 (4 votes)
Idiot Box lessons Tabs too difficult? Try these video lessons and learn fast
1
                Verse/Chorus(Heavy Distortion)
e---------------------------------------------
b---------------------------------------------
g--7---7--7----8----5----7---7--7----8--
d--7---7--7----8----5----7---7--7----8--
a--5---5--5----6----3----5---5--5----6--
e--5---5--5----6----3----5---5--5----6--

e--------------------------------------------
b--------------------------------------------
g--5----------------------------------------
d--5----7---7--7----5----10-------------
a--3----7---7--7----5----10-------------
e--3----5---5--5----3----8--------------

Listen to the song for the rythem.
            
Submit corrections

comments powered by Disqus
↑ Back to top | Incubus Tabs for Idiot Box. Lyrics for acoustic guitar and electric guitar. 1 Tablatures and chords are parodies/interpretations of the original songs. You may use it for private study, scholarship, research or language learning purposes only