» » »

Incubus, Idiot Box Tabs (ver.1)

Artists:  A B C D E F G H I J K L M N O P Q R S T U V W X Y Z # 

Idiot Box Tabs (ver.1)

Incubus Tabs
Rating:
0/5 (0 votes)
Idiot Box lessons Tabs too difficult? Try these video lessons and learn fast
                Song - Idiot box
Band - Incubus
Album - S.C.I.E.N.C.E
BY - Tim Dobson (Spadey)

 Intro:(w/distortion)
   
E|----------------------------------------------------|
B|----------------------------------------------------|
G|--7-------8--5---7-7----8--5-x----------------------|
D|--7-------8--5---7-7----8--5-x-7---7-7--5--8----8---|
A|--5-------6--3---5-5----6--3-x-7---7-7--5--8----8---|
E|-------------------------------5---5-5--3--6----6---|

 Verse:(w/clean chorus effect)

E|--14-------7--------4--------------2--------|
B|--13-------6--------3----------------1------|
G|--14-------7--------4----------2-------2----|
D|---------------------------0-4---4----------|
A|--------------------------------------------|
E|--------------------------------------------|

 Chorus:(w/distortion)

E|----------------------------------------------------|
B|----------------------------------------------------|
G|--7-------8--5---7-7----8--5-x----------------------|
D|--7-------8--5---7-7----8--5-x-7---7-7--5--8----8---|
A|--5-------6--3---5-5----6--3-x-7---7-7--5--8----8---|
E|-------------------------------5---5-5--3--6----6---|

 2nd Chorus later in song:(w/distortion)

E|------------------------------------------------------|
B|------------------------------------------------------|
G|------------------------------------------------------|
D|--4-4---4-4-4--4-4-4-2-4-2-4-4--4-4--4-4-4-4-4--4-4---|
A|--4-4---4-4-4--4-4-4-2-4-2-4-4--4-4--4-4-4-4-4--4-4---|
E|--2-2---2-2-2--2-2-2-0-2-0-2-2--2-2--2-2-2-2-2--2-2---|

 Verse:(w/clean chorus effect)

E|--14-------7--------4--------------2--------|
B|--13-------6--------3----------------1------|
G|--14-------7--------4----------2-------2----|
D|---------------------------0-4---4----------|
A|--------------------------------------------|
E|--------------------------------------------|

 Chorus:(w/distortion)

E|----------------------------------------------------|
B|----------------------------------------------------|
G|--7-------8--5---7-7----8--5-x----------------------|
D|--7-------8--5---7-7----8--5-x-7---7-7--5--8----8---|
A|--5-------6--3---5-5----6--3-x-7---7-7--5--8----8---|
E|-------------------------------5---5-5--3--6----6---|


As i said on Dive, i'm trying to put as many songs as i can up
, but it is a long slow proces, so give me time, and i'll have
 them all up!
            
Submit corrections

comments powered by Disqus
↑ Back to top | Incubus Tabs for Idiot Box. Lyrics for acoustic guitar and electric guitar. Tablatures and chords are parodies/interpretations of the original songs. You may use it for private study, scholarship, research or language learning purposes only