» » »

Incubus, Calgone Bass tabs (ver.2)

Artists:  A B C D E F G H I J K L M N O P Q R S T U V W X Y Z # 

Calgone Bass tabs (ver.2)

Incubus Tabs
 Rating:
4/5 (4 votes)
Calgone lessons Tabs too difficult? Try these video lessons and learn fast
1
                Intro(let ring)
G|----------------|----------------|----------------|----------------|
D|16------16------|16----16--------|17----17--------|17-----17-------|
A|---17-----17----|--17----17------|--18----18------|---18----18-----|
E|-----18-----18--|----18-----18---|----19----19----|-----19----19---|

end intro with this(turn on EXTREMELY HEAVY DISTORTION)

E|19/---------------|

Verse(with distortion)
G|----------------|----------------|----------------|----------------|
D|----------------|----------------|----------------|----------------|
A|---------3------|---------3------|---------3------|---------3------|
E|0--0----1-1-0-1-|0--0----1-1-0-1-|0--0----1-1-0-1-|0--0----1-1-0-1-|

Other verse(stil distorted)
G|----------------|----------------|----------------|----------------|
D|----------------|----------------|----------------|----------------|
A|-------3--------|------3---------|------3---------|------3---------|
E|0-1-0---------1-|0-1-0---------1-|0-1-0---------1-|0-1-0---------1-|

Interlude

A|2---------------|2---------------|2---------------|2---------------|
            
Submit corrections

comments powered by Disqus
↑ Back to top | Incubus Bass for Calgone. Lyrics for acoustic guitar and electric guitar. 1 Tablatures and chords are parodies/interpretations of the original songs. You may use it for private study, scholarship, research or language learning purposes only