» » »

Calgone Bass tabs (ver.3)

Artists:  A B C D E F G H I J K L M N O P Q R S T U V W X Y Z # 

Calgone Bass tabs (ver.3)

Incubus
Rating:
0/5 (0 votes)

Hard to play? Try these video lessons and learn fast.
                
This is a correction of my own tab. There were bits in the previous tab
which were omitted, and so it needed to be changed.

Intro 
G|-6-----6-----6-----6-------7-----7-----7-----7------| 
D|---7-----7-----7-----7-------8-----8-----8-----8----| 
A|-----7-----7-----7-----7-------8-----8-----8-----8--| 
E|----------------------------------------------------|

First main riff 
G|-----|------------------------------|
D|-----|------------------------------| 
A|-----|-------3--------------3-------|
E|-12\-|-0-0-2---2-0-2--0-0-2---2-0-2-| 

First riff variations
G|-----------------|----------------| 
D|-----------------|----------------|
A|---------3-------|-------3--------| 
E|-0-000-2---2-0-2-|-0-0-2---2-0-2/-|

Second main riff
G|-----------------| 
D|-----------------|
A|-----------------|
E|-3-0-2h3h4-3p2-3-|In the original tab, I missed the first G, which might
not seem much, but it threw the rhythm completely.

Break 
G|---------------------------------------------| 
D|---------------------------------------------| 
A|---------------------------------------------| 
E|-6-----6-----6-----6-----6-----6-----6-----6-|

Chorus 
G|-----------------------|-----------------------| 
D|-----------------------|-----------------------| 
A|-2---------0--2--------|-2---------0h22--------| 
E|----2-333--------2-3-2-|----2-3-3--------2-3-2-|

Chorus variation (play 4th time)
G|-------------------------| 
D|-------------------------| 
A|-2---------0--2----------| 
E|----2-333--------2-3-2-5-|

After chorus, play: 
G|-------------------------------|-----------------| 
D|-------------------------------|-----------------| 
A|-------------------------------|-----------------| 
E|-----3-----3-----3-----3---12\-|-3-0-2h3h4-3p2-3-|

Play through riffs in order to finish the song, and you're done!

Again, I haven’t yet done the secret stuff (Segue 1), but please mail me
with any contributions you may have.
            
Hard to play? Try these video lessons and learn fast. | Correct




comments powered by Disqus
↑ Back to top | Tablatures and chords are parodies/interpretations of the original songs. You may use it for private study, scholarship, research or language learning purposes only