» » »

Incubus, Are You In? Bass tabs (ver.3)

Artists:  A B C D E F G H I J K L M N O P Q R S T U V W X Y Z # 

Are You In? Bass tabs (ver.3)

Incubus Tabs
 Rating:
4/5 (4 votes)
Are You In? lessons Tabs too difficult? Try these video lessons and learn fast
1
                Intro:
G:--14/16------14/16-----------
D:--14/16------14/16-----------
A:-----------------------------                     x2
E:----------------------14\\\--

Pre-Verse:
G:--14h16p14------
D:-----------16\--
A:----------------
E:----------------

Verse:                      
G:----------------------- 
D:-----------------------  
A:--5---5-2-0---2-------- 
E:----------------0-2---- 

first ending          
G:---------2-----4p2--
D:----4---2--(2)------
A:--------------------  
E: --2---2--------------

second ending
G:------------------
D:-------------
A:--2--2--0-0--2----
E:---------------0—

Chorus:
G:--------------------------------------------------------------------
D:---------------------------------------------------------------0-2--
A:--5-5-5-5-------------------------5-5-5-5------------------0-2------
E:----------5-5-5-5-2-2-2-2-2-2-2-2---------5-5-5-5-2-2-2-2-----------

Bridge:
G:-------------------------
D:---------5----7----------
A:--------7----9-----10-7--
E:--3-0--7----7----7-------
            
Submit corrections

comments powered by Disqus
↑ Back to top | Incubus Bass for Are You In?. Lyrics for acoustic guitar and electric guitar. 1 Tablatures and chords are parodies/interpretations of the original songs. You may use it for private study, scholarship, research or language learning purposes only